» » »

Fee Band, Rise And Sing Bass tabs (ver.1)

Artists:  A B C D E F G H I J K L M N O P Q R S T U V W X Y Z # 

Rise And Sing Bass tabs (ver.1)

Fee Band Tabs
 Rating:
4/5 (4 votes)
Rise And Sing lessons Tabs too difficult? Try these video lessons and learn fast
                decided to tab it out for my band so here you go!

Intro
G -------------------------------------------------------------------------|
D -------------------------------------------------------------------------|
A –2~-- 2~---------2-2-2-2-2-6/2-2-2-2-2-2-2-2-6-6-6-6-6-6-6---------------|
E -----------------------------------------------------------4-4-4-4-4-4-4-|

G ---------------|
D ---------------| x2     End on:
A ---------------|                A -2/0
E -2-2-2-0-0-0-0-|


Verse:
“woah oh woah oh oh oh oh oh” ”woah…”
G --------------------------------------|
D --------------------------------------|
A –2~--------------------------3p2~-----|
E --------------------------------------|

“if you were bound”
G -------------------------------|
D -------------------------------|
A –2/6----2/7-----2/6------2/7---|   x2
E -----------------------------2-|

Pre-Chorus:
G --------------------------------------------|
D --------------------------------------------|
A –2~----------3p2~--------10/2------------6/2|
E---------------------------------------------|

Chorus:
G ---------------------------------------------------------|
D ---------------------------------------------------------|   X4
A -2-2-2-2-2-2-2-6-6-6-6-6-6-6-----------------------------|
E -----------------------------4-4-4-4-4-4-4-2-2-2-0-0-0-0-|

Verse 2:
G -------------------------------|
D -------------------------------|
A –2/6----2/7-----2/6------2/7---|   x2
E -----------------------------2-|

Pre-Chorus:
G ------------------------------|
D ------------------------------|
A –2~----------3p2~--------10/2-|
E-------------------------------|

Chorus:
G ---------------------------------------------------------|
D ---------------------------------------------------------|   X3
A -2-2-2-2-2-2-2-6-6-6-6-6-6-6-----------------------------|
E -----------------------------4-4-4-4-4-4-4-2-2-2-0-0-0-0-|

G -------------------------------------------------------------|
D -------------------------------------------------------------|
A -2-2-2-2-2-2-2-6-6-6-6-6-6-6---------------------------------|
E -----------------------------4-4-4-4-4-4-4-2-2-2-0-----6/2---|

G ---------------------------------------------------------|
D ---------------------------------------------------------|
A -2-2-2-2-2-2-2-6-6-6-6-6-6-6-----------------------------|
E -----------------------------4-4-4-4-4-4-4-2-2-2-0-0-0-0-|

Verse 3:
G -----------------------------------------------------------------------------|
D -----------------------------------------------------------------------------|
A -2~----------2~-----------2-2-2-2-2-2-2-2-2-2-2-2-2-2-2----2-2-2-2-2-2-2-2-2-|
E ---------2-0----------2-0------------------------------2-0-------------------|

G ------------------------------|
D ------------------------------|
A -2-2-2-2-2-2-2-2--------10/2--|
E ------------------------------|

Chorus:
G ---------------------------------------------------------|
D ---------------------------------------------------------|   X2
A -2-2-2-2-2-2-2-6-6-6-6-6-6-6-----------------------------|
E -----------------------------4-4-4-4-4-4-4-2-2-2-0-0-0-0-|

G ------------------------------|
D ------------------------------|
A -2--------6-------------------|
E-------------------4-------2—0-|

G ---------------------------------------------------------|
D ---------------------------------------------------------|
A -2-2-2-2-2-2-2-6-6-6-6-6-6-6-----------------------------|
E -----------------------------4-4-4-4-4-4-4-2-2-2-0-0-0-0-|

G ---------------------------------------------------------------|
D ---------------------------------------------------------------|
A -2-2-2-2-2-2-2-6-6-6-6-6-6-6-----------------------------2—2/14|
E -----------------------------4-4-4-4-4-4-4-2-2-2-0-----0-------|
            
Submit corrections

comments powered by Disqus
↑ Back to top | Fee Band Bass for Rise And Sing. Lyrics for acoustic guitar and electric guitar. Tablatures and chords are parodies/interpretations of the original songs. You may use it for private study, scholarship, research or language learning purposes only