>
 >
Sonatina In A - 3 Allegro

Sonatina In A - 3 Allegro Guitar Tabs

Federico Moreno Torroba - Sonatina In A - 3 Allegro chords, tabs, tablatures, lyrics

Guitar lessons | Add/correct | Request | Top 50 tabs Artists:  A B C D E F G H I J K L M N O P Q R S T U V W X Y Z 0-9

Sonatina In A - 3 Allegro Guitar Tabs – Federico Moreno Torroba

CD, Sheet music, Poster

Do you like Sonatina In A - 3 Allegro? Share with your friends now
Tabs

Sonatina in A - III - Allegro

F. Moreno Torroba

E|--------------------|---5----------------|--------------------|----2----0----------|
B|-----5-5-5-5--------|---5---5-5-5-5------|-------5-5-5-5------|--------------3-----|
G|--------------------|---6----------------|---2----------------|----1----1----1-----|
D|--------------------|---7----------------|--------------------|----2----2----2-----|
A|--------------------|---7----------------|--------------------|----0----0----0-----|
E|--------------------|---5----------------|--------------------|--------------------|

E|--------------------|---5----------------|-------0-0-0-0------|----2---------------|
B|----2---5-5-5-5-----|---5---5-5-5-5------|--------------------|---------3----0-----|
G|----2---------------|---6----------------|---2----------------|----1----1----1-----|
D|----2---------------|---7----------------|--------------------|----2----2----2-----|
A|----0---------------|---7----------------|--------------------|----0----0----0-----|
E|--------------------|---5----------------|--------------------|--------------------|

E|--------------------|--------------------|--------------------|--------------------|
B|--------------------|-----3-------3------|-----2^0------------|--------------------|
G|------2-----2-------|---------2----------|-----------2--------|-----4^2---1--------|
D|------2-------------|---------4----------|-----2--------------|-----0--------------|
A|------4-------------|---------2----------|--------------------|--------------------|
E|------5-------------|--------------------|-----0--------------|-----0--------------|

E|-----------------9--|-----10--------10---|------8^7----5------|----7^5-------------|
B|--------------10----|----------10--------|------8-------------|------6---8--6------|
G|---2-------9--------|----------10--------|--------------------|------5-------------|
D|-------11-----------|----------9---------|------7-------------|--------------------|
A|---4----------------|--------------------|--------------------|------6-------------|
E|---5----------------|--------------------|--------------------|--------------------|

E|----0---------------|--------------------|--------------------|--------------------|
B|----0---------------|--------------------|--------------------|--------------------|
G|--------------------|--------------------|--------------------|--------------------|
D|----6---------------|--------------------|--------------------|--------------------|
A|----7----7-7-7-7----|-------8---7--------|-----7--------------|--------------------|
E|--------------------|---------------10---|---------10---8-----|-----7---8---10-----|

E|-------12-12-12-12--|--14^12---10--------|-----12^10---9------|----12^10---9-------|
B|--------------------|--0-----------------|-----10-------------|---------------12---|
G|--------------------|--11----------------|--------------------|----11------9-------|
D|--------------------|--0-----------------|-----11-------------|---------------12---|
A|--------------------|--------------------|--------------------|--------------------|
E|---12--------------|--------------------|-----0--------------|----0---------------|

E|---5----------------|----6---------------|--------------------|-----5--------------|
B|--------------------|--------------------|--------------------|-----5--------------|
G|---6----------------|----7---------------|--------------------|-----6--------------|
D|-------7--7--7--7---|----7^5-------------|-------7^5----------|----------7---------|
A|--------------------|----------7---------|------------7-------|---------------7----|
E|---5----------------|--------------------|--------------------|--------------------|

E|--------------------|--------------------|--------------------|------------0-------|
B|--------------------|--------------------|--------------------|--------------------|
G|-------9--9--9--9---|---9\7---5----------|------7---5---3-----|----2---------------|
D|--------------------|---6----------------|--------------------|--------------------|
A|----0---------------|---8----------------|--------------------|--------0-----------|
E|--------------------|---6----------------|--------------------|--------------------|

E|--------5-----------|----5----10---9-----|------12^9---10-----|----7^9^7------7----|
B|--------8-----------|----7---------------|--------------------|----7------10-------|
G|--------6-----------|----7---------------|--------------------|----7---------------|
D|--------7-----------|----0---------------|--------------------|--------------------|
A|--------------------|--------------------|--------------------|--------------------|
E|--------------------|--------------------|--------------------|--------------------|

E|----8----10---------|----7^8^7---5-------|----5---------------|--------------------|
B|----7---------------|----------------8---|---------7----------|----3---------------|
G|----7---------------|----7---------------|----6---------------|---------2----------|
D|---------------0----|----5---------------|----7---------------|----4---------------|
A|--------------------|--------------------|--------------0-----|--------------0-----|
E|--------------------|--------------------|--------------------|--------------------|

E|--------------------|--------------------|--------------------|----2---------------|
B|--------------------|--------------------|----10---8----------|---------3----------|
G|--------9^7---6^7---|----9----6----------|-------------6------|--------------2-----|
D|---0----------------|--------------7-----|-------------7------|----0----4----------|
A|--------------------|----0---------------|-------------0------|--------------------|
E|--------------------|--------------------|--------------------|--------------------|

E|--------------------|--------------------|-----3---2---0------|--------------------|
B|-------5^3---2^3----|-----5^2------------|-----3-------2------|----3---------------|
G|--------------------|------------2-------|-----4---2---0------|---------2----------|
D|---0----------------|--------------------|--------------------|---------4----------|
A|--------------------|-----0--------------|-----0--------------|----5---------0-----|
E|--------------------|--------------------|--------------------|--------------------|

E|--------------------|------------7-------|------------9-------|-----------10-------|
B|--------------------|---------7-----7----|---------9-----9----|--------10----10----|
G|--------------------|------7-----------7-|------9-----------9-|-----11----------11-|
D|--------------------|--------------------|--------------------|--------------------|
A|--------5-----------|--------------------|--------------------|--------------------|
E|--------------------|--0-----------------|--0-----------------|--0-----------------|

E|--12---7-7-7-7------|--12----------------|--------------------|--------------------|
B|--9-----------------|-------12-12-12-12--|--------------------|--------------------|
G|--9-----------------|--------------------|---9----------------|--------------------|
D|--------------------|--------------------|-------9-9-9-9------|--------------------|
A|--------------------|--------------------|--------------------|-------7------------|
E|--0-----------------|--------------------|--------------------|-------------7------|

E|--------------------|---5----------------|--------------------|----2----0----------|
B|-------5-5-5-5------|---5---5-5-5-5------|-------5-5-5-5------|--------------3-----|
G|--------------------|---6----------------|---2----------------|----1----1----1-----|
D|--------------------|---7----------------|--------------------|----2----2----2-----|
A|--------------------|---7----------------|--------------------|----0----0----0-----|
E|---0----------------|---5----------------|--------------------|--------------------|

E|--------------------|---5----------------|-------0-0-0-0------|----2---------------|
B|----2---5-5-5-5-----|---5---5-5-5-5------|--------------------|---------3----0-----|
G|----2---------------|---6----------------|---2----------------|----1----1----1-----|
D|----2---------------|---7----------------|--------------------|----2----2----2-----|
A|----0---------------|---7----------------|--------------------|----0----0----0-----|
E|--------------------|---5----------------|--------------------|--------------------|

E|--------------------|--------------------|--------------------|--------------------|
B|--------------------|-----3-------3------|-----2^0------------|--------------------|
G|------2-----2-------|---------2----------|-----------2--------|-----4^2---1--------|
D|------2-------------|---------4----------|-----2--------------|-----0--------------|
A|------4-------------|---------2----------|--------------------|--------------------|
E|------5-------------|--------------------|-----0--------------|-----0--------------|

E|-----------------9--|-----10--------10---|------8^7----5------|----7^5-------------|
B|--------------10----|----------10--------|------8-------------|------6---8--6------|
G|---2-------9--------|----------10--------|--------------------|------5-------------|
D|-------11-----------|----------9---------|------7-------------|--------------------|
A|---4----------------|--------------------|--------------------|------6-------------|
E|---5----------------|--------------------|--------------------|--------------------|

E|----0---------------|--------------------|--------------------|--------------------|
B|----0---------------|--------------------|--------------------|--------------------|
G|--------------------|--------------------|--------------------|--------------------|
D|----6---------------|--------------------|--------------------|--------------------|
A|----7----7-7-7-7----|-------8---7--------|-----7--------------|--------------------|
E|--------------------|---------------10---|---------10---8-----|-----7---8---10-----|

E|-------12-12-12-12--|--14^12---10--------|-----12^10---9------|----12^10---9-------|
B|--------------------|--0-----------------|-----10-------------|---------------12---|
G|--------------------|--11----------------|--------------------|----11------9-------|
D|--------------------|--0-----------------|-----11-------------|---------------12---|
A|--------------------|--------------------|--------------------|--------------------|
E|---12--------------|--------------------|-----0--------------|----0---------------|

E|---5----------------|----6---------------|--------------------|-----5--------------|
B|--------------------|--------------------|--------------------|-----5--------------|
G|---6----------------|----7---------------|--------------------|-----6--------------|
D|-------7--7--7--7---|----7^5-------------|-------7^5----------|----------7---------|
A|--------------------|----------7---------|------------7-------|---------------7----|
E|---5----------------|--------------------|--------------------|--------------------|

E|--------------------|----6---------------|-----5--------------|-----4--------------|
B|--------------------|--------------------|--------------------|-----1--------------|
G|--------------------|----7---------------|-----6--------------|--------------------|
D|-------7--7--7--7---|----7^5-------------|-----5--------------|-----3^2---1--------|
A|---0----------------|-----------8--------|----------8^7-------|--------------------|
E|--------------------|--------------------|--------------------|--------------------|

E|----------|-----------|--------1--|--4--------|-----1--4--|--8--------|--10--------|
B|----------|-----------|-----1-----|-----------|--1--------|--6--------|--8---------|
G|----------|-----------|--1--------|--------1--|-----------|-----------|------------|
D|--0^1--2--|--3--0--3--|-----------|-----3-----|-----------|--6--------|--8---------|
A|----------|-----------|-----------|-----------|-----------|-----------|------------|
E|----------|-----------|-----------|-----------|-----------|-----6--6--|------6--6--|

E|--8-------|---10------|--13---------------|--------------|-----------|-------------|
B|--6-------|---8-------|--13---------------|--------------|-----------|-------------|
G|----------|-----------|--13---------------|--------------|-----------|-------------|
D|--6-------|---8-------|-------------------|--------------|-----------|-------------|
A|----------|-----------|------11-11-11-11--|--13--11--10--|--8--6--5--|--3--1-------|
E|-----6--6-|------6-6--|--13---------------|--------------|-----------|--------4----|

E|----------|-----------|-----------|--------------|------3-3-3-3--|----5---3--------|
B|----------|-------3---|--6-----0--|--------------|---------------|------------6----|
G|-----2^4--|--2^4------|-----------|--7--10-------|---------------|----4---4---4----|
D|-----0^3--|--0^3------|-----7-----|---------12--|---------------|----5---5---5----|
A|----------|-----------|-----------|--------------|--7-----------|----3---3---3----|
E|--3-------|-----------|-----------|--------------|---------------|-----------------|

E|-----3-3-3-3--|--5--3-----|-----8-8-8-8--|--10--8------|--5^3-----|----------------|
B|--5-----------|--------6--|--5-----------|---------11--|-------6--|----6---5---0---|
G|--------------|--4--4--4--|--------------|--9---9---9--|--5-------|----4---4---4---|
D|--5-----------|--5--5--5--|--5-----------|--8---8---8--|--3-------|----5---5---5---|
A|--3-----------|--3--3--3--|--3-----------|-------------|----------|----------------|
E|--------------|-----------|--------------|--8---8---8--|----------|----3---3---3---|

E|--------------|-----------|--------------|--9----------|--8-------|----------------|
B|--1-----------|--2--------|--1-----------|-------------|--8-------|----------------|
G|--0-----------|-----------|-----5-5-5----|--10---------|--9-------|-------------9--|
D|--2-----------|--3--------|--2-----------|--10^8-------|--10------|---------10-----|
A|--3----3-3-3--|--3^1------|--3-----------|--------10---|----------|----10----------|
E|--------------|-------3---|--------------|-------------|-----8^12-|----------------|

E|-------------|-------------|---8------------|--9--------------|--12----------------|
B|---8---------|-------5^8---|-----8-------8--|----9---------9--|-----11---------11--|
G|-------------|---5---------|-------9---9----|------10---10----|--------12---12-----|
D|---------5---|-------------|----------------|-----------------|--------------------|
A|------7------|-------------|----------------|-----------------|--------------------|
E|-------------|-------------|---------8------|---------8-------|-----------8--------|

E|--9--------------|--8------------|---6------------|--8------------|--9-------------|
B|----9---------9--|----8-------8--|-----6-------6--|----6-------6--|----6-------6---|
G|------10---10----|------9---9----|-------6---6----|------6---6----|------6---6-----|
D|-----------------|---------------|---------5------|--------6------|--------8-------|
A|-----------------|---------------|----------------|---------------|----------------|
E|---------8-------|--------8------|----------------|---------------|----------------|

E|---8-------------|--6-------6----|----------------|---------------|----------------|
B|-----6-------6---|----6-------6--|--9--------9----|--8-------8----|--6-------6-----|
G|-------6---6-----|------6--------|----8--------8--|----6-------6--|----4-------4---|
D|---------6-------|--------5------|------10--------|------8--------|------6---------|
A|-----------------|---------------|---------8------|--------6------|--------4-------|
E|-----------------|---------------|----------------|---------------|----------------|

E|-------------|--------|---------|-----------|---------|---------|---------|--------|
B|-5---5-5-5-5-|-8^6-5--|-11^9-8--|--9^8-6-5--|--6------|--4------|--6------|--4-----|
G|-5-----------|--------|---------|-----------|--4------|--2------|--4------|--2-----|
D|-5-----------|--------|---------|-----------|--6------|--4------|--6------|--4-----|
A|-3-----------|--------|---------|-----------|----4-4--|----4-4--|----4-4--|----4-4-|
E|-------------|--------|---------|-----------|---------|---------|---------|--------|

E|-------------|--------|---------|-----------|------9-9-9-9-|--11^9----|----9-9-9-9-|
B|--6----------|--------|---------|-----------|--7-----------|--12---12-|-11---------|
G|--4----------|--------|---------|-----------|--6-----------|--10------|------------|
D|--5----------|-9^8-6--|-13^11-9-|-11^9-8----|--8-----------|----------|-11---------|
A|--4--6-6-6-6-|--------|---------|--------11-|--9-----------|--9-------|-9----------|
E|-------------|--------|---------|-----------|--------------|----------|------------|

E|--11^9----|---------------|-----------|--7------------|-----------|--7---7-7-7-7---|
B|--12---12-|-11---7-7-7-7--|--9^11--7--|------7-7-7-7--|--9^11--7--|----------------|
G|--10------|---------------|--7--------|--8------------|--7--------|--8-------------|
D|----------|-11------------|--8--------|---------------|--8--------|----------------|
A|--9-------|-9-------------|--7--------|---------------|--7--------|----------------|
E|----------|---------------|-----------|--7------------|-----------|--7-------------|

E|--7-6-4--|--6-4-2--|--4------|--2------|---4------|---2------|---4------|---2------|
B|--7------|---------|----7-6--|---------|----------|----------|----------|----------|
G|--7-6-4--|--6-4-2--|--4-4-4--|--3------|---4------|---3------|---4------|---2------|
D|--6------|--4------|---------|--4------|---3------|---4------|---3------|---4------|
A|---------|--4------|--4-4-4--|---------|----------|----------|----------|----------|
E|---------|---------|---------|----2-2--|---2-2-2--|---2-2-2--|---2-2-2--|-----2-2--|

E|------------------|--------------|---------|---------|---------|--0---0--|---------|
B|------------------|--------------|---------|----2^5--|--2-5-2--|--0-2-0--|--2^5-2--|
G|------------------|--------------|---------|----0^4--|--0-4-0--|----0----|--0^4-0--|
D|------------------|--------------|---------|---------|---------|---------|---------|
A|------------------|--------------|---------|--0------|---------|--0------|--0------|
E|------2-2-2-------|----2-2-2-----|--2^3^4--|---------|---------|---------|---------|

E|---------------------10--7--9--|----5^3--5------------------------|----------------|
B|----8--10--12--------8---------|----3-------7--5--3---8--7--5-----|---3------------|
G|----7--------------------------|----------------------7-----6-----|---2------------|
D|----9--11--12------------------|----4-----------------9--7--5-----|---4------------|
A|----7----------0--0------------|----0-----------------7-----7-----|---5----5-5-5---|
E|-------------------------------|-------------------------------5--|----------------|

E|---------|-----10-10-10--|----10^8------|--10-----------|------|-----------|-------|
B|--4------|--3------------|----8-----10--|--7------------|---3--|-----------|---4---|
G|---------|--2------------|----8---------|--7------------|------|-----------|---0---|
D|--5------|--4------------|--------------|------0-0-0-0--|---4--|-----------|---5---|
A|--5-3-0--|--5------------|--------------|---------------|---5--|--5-5-5-5--|---5---|
E|---------|---------------|--------------|---------------|------|-----------|-------|

E|-------7-----|-------9------|---------10-------|--12--7-7-7-7--|---12--------------|
B|-----7---7---|-----9---9----|------10----10----|--9------------|------12-12-12-12--|
G|---7-------7-|---9-------9--|---11----------11-|--9------------|-------------------|
D|-------------|--------------|------------------|---------------|-------------------|
A|-------------|--------------|------------------|---------------|-------------------|
E|-0-----------|-0------------|-0----------------|--0------------|-------------------|

E|---------------|----------|-------------|----5----------------|--------------------|
B|----9----------|----------|----5-5-5-5--|----5---5-5-5-5------|-------5-5-5-5------|
G|---------------|----------|-------------|----6----------------|---2----------------|
D|------9-9-9-9--|----------|-------------|----7----------------|--------------------|
A|---------------|----7-----|-------------|----7----------------|--------------------|
E|---------------|-------7--|--0----------|----5----------------|--------------------|

E|---2----0-------|----------------|--5------------|------0-0-0-0---|---2------------|
B|-------------3--|--2---5-5-5-5---|--5---5-5-5-5--|----------------|--------3----0--|
G|---1----1----1--|--2-------------|--6------------|--2-------------|---1----1----1--|
D|---2----2----2--|--2-------------|--7------------|----------------|---2----2----2--|
A|---0----0----0--|--0-------------|--7------------|----------------|---0----0----0--|
E|----------------|----------------|--5------------|----------------|----------------|

E|--------------------|--------------------|--------------------|--------------------|
B|--------------------|-----3-------3------|-----2^0------------|--------------------|
G|------2-----2-------|---------2----------|-----------2--------|-----4^2---1--------|
D|------2-------------|---------4----------|-----2--------------|-----0--------------|
A|------4-------------|---------2----------|--------------------|--------------------|
E|------5-------------|--------------------|-----0--------------|-----0--------------|

E|-----------------9--|-----10--------10---|------8^7----5------|----7^5-------------|
B|--------------10----|----------10--------|------8-------------|------6---8--6------|
G|---2-------9--------|----------10--------|--------------------|------5-------------|
D|-------11-----------|----------9---------|------7-------------|--------------------|
A|---4----------------|--------------------|--------------------|------6-------------|
E|---5----------------|--------------------|--------------------|--------------------|

E|----0---------------|--------------------|--------------------|--------------------|
B|----0---------------|--------------------|--------------------|--------------------|
G|--------------------|--------------------|--------------------|--------------------|
D|----6---------------|--------------------|--------------------|--------------------|
A|----7----7-7-7-7----|-------8---7--------|-----7--------------|--------------------|
E|--------------------|---------------10---|---------10---8-----|-----7---8---10-----|

E|-------12-12-12-12--|--14^12---10--------|-----12^10---9------|----12^10---9-------|
B|--------------------|--0-----------------|-----10-------------|---------------12---|
G|--------------------|--11----------------|--------------------|----11------9-------|
D|--------------------|--0-----------------|-----11-------------|---------------12---|
A|--------------------|--------------------|--------------------|--------------------|
E|---12--------------|--------------------|-----0--------------|----0---------------|

E|---5----------------|----6---------------|--------------------|-----5--------------|
B|--------------------|--------------------|--------------------|-----5--------------|
G|---6----------------|----7---------------|--------------------|-----6--------------|
D|-------7--7--7--7---|----7^5-------------|-------7^5----------|----------7---------|
A|--------------------|----------7---------|------------7-------|---------------7----|
E|---5----------------|--------------------|--------------------|--------------------|

E|--------------------|---10---------------|--------------------|----8---------------|
B|--------------------|--------------------|--------------------|----8---------------|
G|--------------------|---10---------------|--------------------|----10--------------|
D|-------11-11-11-11--|---11^9-------------|-------11^9---------|--------11----------|
A|----0---------------|---------10---------|-------------10-----|------------10------|
E|--------------------|--------------------|--------------------|--------------------|

E|-----|-----7----|--------7--|--0--------|-----|--0--5--4--|--7^4--5--|--2^4^2---2--|
B|-----|-------7--|--10^7-----|-----------|-----|-----------|----------|--2-----5----|
G|-----|--7-------|-----------|--9--------|--7--|--6--------|----------|-------------|
D|-----|--7-------|-----------|-----------|--6--|-----------|----------|--2----------|
A|--4--|--9-------|-----------|-----7-----|--7--|--0--------|----------|--0----------|
E|-----|--0-------|-----------|--------4--|-----|-----------|----------|-------------|

E|--3--5-----|--2^3^2--------|--0--------|----------|---------------|---------|------|
B|--0--2-----|---------5--3--|-----2-----|----------|---------------|---------|------|
G|-----------|--2------------|--1--------|-2--------|---------------|---------|------|
D|-----------|--0------------|--2--------|----2-----|---------------|---------|------|
A|--------0--|---------------|-----------|-0--------|--0------------|---------|--7-5-|
E|-----------|---------------|--------0--|-------0--|-----7^5--4^5--|--7-4-0--|------|

E|-------|-5-------------|-------0--|--10--9--7--|--5--|--5^3----|--6^5-3--|-8-------|
B|-------|-5 12^10 9^10--|--12^9----|--7---7--7--|-----|------6--|--3------|---11-10-|
G|-------|-6-------------|----------|--7---7--7--|--6--|--5------|---------|-8-------|
D|-------|-7-------------|----------|------------|-----|--3------|--3------|---------|
A|--4--0-|-7-------------|----------|--0---0--0--|--0--|---------|---------|-8-------|
E|-------|-5-------------|--0-------|------------|-----|---------|---------|---------|

E|--10^8----|-----8-8-8-8-|--10^8----|-----8-8-8-8-|--10^8-----|------|--------------|
B|-------11-|-10----------|-------11-|-10----------|-------11--|--10--|-12----------|
G|--8-------|-10----------|--8-------|-10----------|--8--------|--10--|--------------|
D|----------|-------------|----------|-------------|-----------|------|-7-----------|
A|--8-------|-8-----------|--8-------|-8-----------|--8--------|--8---|-7-----------|
E|----------|-------------|----------|-------------|-----------|------|-----0-0-0-0--|

E|--------------------|--------------------|--------------------|--------------------|
B|--------------------|--------------------|--------------------|--------------------|
G|--------------------|--------------------|--------------------|--------------------|
D|--------------------|--------------------|--------------------|--------------------|
A|----7--------------|--------------------|----7--------7----|----------7--------|
E|--------0-0-0-0-----|----12---0-0-0-0---|---------0----------|----0----------0----|

E|---------|-------------------|---5------------|------0-0-0-0--|--2----0------------|
B|----12--|---------5-5-5-5---|---5---5-5-5-5--|---------------|------------3-------|
G|---------|----12------------|---6------------|--2------------|--1----1----1-------|
D|----7---|-------------------|---7------------|---------------|--2----2----2-------|
A|----7---|-------------------|---7------------|---------------|--0----0----0-------|
E|---------|-------------------|---5------------|---------------|--------------------|

E|-------------------|-10---------------|-12-|---------|---|------------------|------|
B|--2---10-10-10-10--|-10---10-10-10-10-|-10-|---------|---|------------------|------|
G|--2----------------|-10---------------|-9--|---------|-9-|------------------|------|
D|--2----------------|-0----------------|----|-6-6-6-6-|---|------------------|------|
A|--0----------------|------------------|----|---------|---|-12-12-12-12--|--7--|
E|-------------------|------------------|-9--|---------|---|------------------|------|

E|------------------|---------------------|---------------|-----------|-----5-------||
B|------------------|---------------------|---------------|-----------|-----5-------||
G|------------------|---------------------|---------------|-----------|-----6-------||
D|------------------|---------------------|---------------|-----------|-----7-------||
A|-----0-0-0-0------|-----7---7-7-7-7-----|-----5-4-2-----|-----0-----|-----7-------||
E|------------------|---------------------|---------------|-----------|-----5-------||





Comments


Popular Federico Moreno Torroba tabs & chords
Castles Of Spain Vol 1 - 1 Turegano Serranilla Tabs
Castles Of Spain Vol 1 - 6 Siguenza Tabs
Castles Of Spain Vol 1 - 7 Alba De Tormes Tabs
Castles Of Spain Vol 1 - 8 Alcazar De Segovia Tabs
Siete Piezas - 5 Ay Malaguena Tabs
Siete Piezas - 6 Chisperada Tabs
Siete Piezas - 7 Bolero Menorquin Tabs
Sonatina In A - 2 Andante Tabs
Suite Castellana - Danza Preambulo Tabs
Suite Castellana - Fandanguillo Tabs


Song lyrics



↑ Back to top | Tablatures and chords are parodies/interpretations of the original songs. You may use it for private study, scholarship, research or language learning purposes only
© 2014 AZChords.com Contact us | Privacy policy | DMCA | Add/correct tabs | Request tabs | Top 50 tabs