>
 >
Castles Of Spain Vol 1 - 6 Siguenza

Castles Of Spain Vol 1 - 6 Siguenza Guitar Tabs

Federico Moreno Torroba - Castles Of Spain Vol 1 - 6 Siguenza chords, tabs, tablatures, lyrics

Guitar lessons | Add/correct | Request | Top 50 tabs Artists:  A B C D E F G H I J K L M N O P Q R S T U V W X Y Z 0-9

Castles Of Spain Vol 1 - 6 Siguenza Guitar Tabs – Federico Moreno Torroba

CD, Sheet music, Poster

Do you like Castles Of Spain Vol 1 - 6 Siguenza? Share with your friends now
Tabs
Sigьenza (La Infanta Duerme)
Castles of Spain Vol. 1

Federico Moreno Torroba

Andantino

1
E---3-----------|---2-----------|---3-----------2---------|
B---3-----------|---3-----------|---3-----------3---------|
G---0-----------|---2-----------|---0-----------2---------|
D-------2-------|-----------2---|-------2-----------------|
A-----------2---|---------------|-----------2-----------2-|
E---------------|-------0-------|-------------------0-----|

3
E-0-----0--3-----2--3--|--0-----2--5--0--3--5--|--2--3/8--7--8-|
B----1--------3--------|-----1--1-----1--------|--4--3/8-------|
G----0--------0--------|-----0--2--------------|--2--4/9-------|
A----------------------|-----------------------|-----2/7-------|
D----0--------2--------|-----3--2-----3--------|--2------------|
E----------------------|-----------------------|---------------|

6
E-6--7--------------|--8--0--5--2-----3--5--|--7--------0-----2--0-|
B----4--------------|-----1--------1--------|-----3--7-------------|
G-6-----------------|--------------2--------|-----4--------3-------|
D-5--4--8-----------|-----------0-----------|----------------------|
A-------------------|--0--------------------|----------------------|
E----------8--8--7--|-----------------------|--3--------8----------|

9
E-------------------0--|--------------------|-------------------|
B-3--0--3--1-----3-----|--0--------------1--|--0----------------|
G-------------0--------|--------------------|--0--------5-------|
D----4--------2--------|-----4--1-----4-----|--4--------4--0----|
A----------0-----------|--2--7-----0--5-----|-----2-----7-----0-|
E-3--------------------|--------------------|--------0----------|

12
E-------------------|-----------------------------|-------------------------|
B-0-----------------|-----------------------------|-------------------------|
G-0--------5--------|------9-----------9----------|-----9-----------9--4--2-|
D-4--------4--0-----|------5-----------5----------|-----5-----------5-------|
A----2-----7-----0--|--------<12>-<12>---<7>-<12>-|-<7>---<12>-<12>---------|
E-------0-----------|-<7>-------------------------|-------------------------|
                      arm.

15
E-------------------------|-------------------|------------------|
B----1-----------1--------|----4--------1-----|----3--------3--4-|
G----3-----------3--------|----2--------3-----|----1--------2----|
D-2-----0-----2-----0-----|----4--------2-----|----3--------4----|
A----------0-----------0--|-2-----3-----------|-1-----1--2-------|
E-------------------------|----------2-----3--|------------------|

18
E-3--------2--------|--3--------2--------|--0-----0--3-----2--3-|
B-3--------3--------|--3--------3--------|----1---------3-------|
G-4--------2--------|--4--------2--------|----0---------0-------|
D----2--------------|-----2--------------|----------------------|
A-------2--------2--|--------2--------2--|----0---------2-------|
E-------------0-----|--------------0-----|----------------------|

21
E-0-----3--5--0--3--5--|--2--3/8--7--8--|--6--7-------------|
B----1--3-----1--------|--4--3/8--------|-------------------|
G----0--2--------------|-----4/9--------|--6--4-------------|
D----------------------|--2--2/7--------|--5--4--8----------|
A----3--2-----3--------|--2-------------|-------------------|
E----------------------|----------------|-----------8--8--7-|

24
E-8--0--5--2-----3--5--|--7-----2--0--------|--3-----------------5-|
B----1--------1--------|-----3-----------0--|-----------------6----|
G-------------2--------|-----4--------3--0--|--------0--5----------|
D----------0-----------|--------------4-----|-----2-----4----------|
A-0--------------------|-----------3-----2--|--1-----------0-------|
E----------------------|--3-----------------|----------------------|

27
E---------0--3--2--|--3--------2--------|--3--------2-------|
B---2--4--------4--|--3--------3--------|--3--------3-------|
G---0-----0--3-----|--4--------2--------|--4--------2-------|
D------4-----------|-----2--------------|-----2-------------|
A-2-------2--------|--------2--------2--|--------2--------2-|
E------------------|--------------0-----|--------------0----|

30
E----------------|--------------------|----------------------||
B----------------|--------------------|---0------------------||
G----------------|--------------------|---0------------------||
D-2-----2--------|--------------------|---4------------------||
A----2-----2-----|--------------------|---7------------------||
E-------------0--|--0-----------------|----------------------||





Comments


Popular Federico Moreno Torroba tabs & chords
Castles Of Spain Vol 1 - 2 Torija Elegia Tabs
Castles Of Spain Vol 1 - 8 Alcazar De Segovia Tabs
Madroños Tabs
Nocturno Tabs
Siete Piezas - 3 Rumor De Copla Tabs
Siete Piezas - 5 Ay Malaguena Tabs
Siete Piezas - 6 Chisperada Tabs
Siete Piezas - 7 Bolero Menorquin Tabs
Sonatina In A - 1 Allegretto Tabs
Suite Castellana - Fandanguillo Tabs


Song lyrics



↑ Back to top | Tablatures and chords are parodies/interpretations of the original songs. You may use it for private study, scholarship, research or language learning purposes only
© 2014 AZChords.com Contact us | Privacy policy | DMCA | Add/correct tabs | Request tabs | Top 50 tabs