» » »

Fear Factory, What Will Become? Tabs (ver.2)

Artists:  A B C D E F G H I J K L M N O P Q R S T U V W X Y Z # 

What Will Become? Tabs (ver.2)

Fear Factory Tabs
 Rating:
4/5 (4 votes)
What Will Become? lessons Tabs too difficult? Try these video lessons and learn fast
1
                Standard tuned 7 string B E A D G B E

Intro/Main Riff
|--------------x3-|------------------|
|-----------------|------------------|
|-----------------|------------------|
|-----------------|---------------10-|
|-----------------|------------------|
|-----------------|---------------8--|
|-0-0-x-0-0-0-x-1-|-0-0-x-0-0-0-x----|

|-------------------------|
|-------------------------|
|-------------------------|
|-------------------------|
|-------------------------|
|-------------------------|
|-55-5-5555-55-5-5555-535-|
(We...cut in...)

|------------------|
|------------------|
|------------------|
|--5---5---5---7---|
|------------------|
|------------------|
|-3--34--45--56--4-|

|------------|
|------------|
|------------|
|------------|
|------------|
|------------|
|-111111111x-|

|------------------|
|------------------|
|------------------|
|-9-9---9-9-9---10-|
|------------------|
|-7-7-x-7-7-7-x-8--|
|------------------|
            
Submit corrections

comments powered by Disqus
↑ Back to top | Fear Factory Tabs for What Will Become?. Lyrics for acoustic guitar and electric guitar. 1 Tablatures and chords are parodies/interpretations of the original songs. You may use it for private study, scholarship, research or language learning purposes only