>
 >
Securitron

Securitron Guitar Tabs

Fear Factory - Securitron chords, tabs, tablatures, lyrics

Guitar lessons | Add/correct | Request | Top 50 tabs Artists:  A B C D E F G H I J K L M N O P Q R S T U V W X Y Z 0-9

Securitron Guitar Tabs – Fear Factory

CD, Sheet music, Poster

Do you like Securitron? Share with your friends now
Bass TabsTabsTabs v2
Notation Key: 
 
	*: palm muted note 
	h: hammer-on 
	p: pull-off 
	b: bend 
	r: release 
	/: slide up 
	\: slide down 
	v: vibrato 
	t: right hand tap  
	x: muted note (or rake) 
	n.h.: natural harmonic 
	a.h.: artificial harmonic 
 

 
Tuning:  7-string guitar on a 6-string down tuned a full 
	 step (A D G C F A). 
 
  Riff A 
-|--------------|------------------------------------------------------------- 
-|--------------|------------------------------------------------------------- 
-|--------------|------------------------------------------------------------- 
-|--------------|------------------------------------------------------------- 
-|--------------|------------------------------------------------------------- 
-|-555555556-5--|------------------------------------------------------------- 
   ********* *                                                                 
 
  Riff B 
-|----------------------------|----------------------------------------------- 
-|----------------------------|----------------------------------------------- 
-|----------------------------|----------------------------------------------- 
-|----------------------------|----------------------------------------------- 
-|----------------------------|----------------------------------------------- 
-|-555555556-5--5--6--5--5-6--|----------------------------------------------- 
   ********* *  *  *  *  * *                                                   
 
  Riff C 
-|----------------------------|----------------------------------------------- 
-|----------------------------|----------------------------------------------- 
-|----------------------------|----------------------------------------------- 
-|----------------------------|----------------------------------------------- 
-|--------------7--8--7----8--|----------------------------------------------- 
-|-555555556-5--5--6--5--5-6--|----------------------------------------------- 
   ********* *           *                                                     
 
  Riff D 
-|----------------------------|----------------------------------------------- 
-|----------------------------|----------------------------------------------- 
-|----------------------------|----------------------------------------------- 
-|----------------------------|----------------------------------------------- 
-|----------------------------|----------------------------------------------- 
-|-5-5-5-5-6-5--5--6--5--5-6--|----------------------------------------------- 
   * * * * * *  *  *  *  * *                                                   
 
  Riff E 
-|----------------------------|----------------------------------------------- 
-|----------------------------|----------------------------------------------- 
-|----------------------------|----------------------------------------------- 
-|----------------------------|----------------------------------------------- 
-|--------------7--8--7----8--|----------------------------------------------- 
-|-5-5-5-5-6-5--5--6--5--5-6--|----------------------------------------------- 
   * * * * * *           *                                                     
 
  Riff F 
-|-----------------------------------------------------------|---------------- 
-|-----------------------------------------------------------|---------------- 
-|-----------------------------------------------------------|---------------- 
-|-----------------------------------------------------------|---------------- 
-|-5-5-5-5-5-5--5--5--5-5--6-5--4-4-4-4-4-4--4--4--4-4--5-4--|---------------- 
-|-----------------------------------------------------------|---------------- 
   * * * * * *  *  *  * *  * *  * * * * * *  *  *  * *  * *                    
 
  cont. 
-|---------------------------------------------------------|------------------ 
-|---------------------------------------------------------|------------------ 
-|---------------------------------------------------------|------------------ 
-|---------------------------------------------------------|------------------ 
-|-2-2-2-2-2-2--2--2--2-2--3-2---------------7--8--7----8--|------------------ 
-|------------------------------5-5-5-5-6-5--5--6--5--5-6--|------------------ 
   * * * * * *  *  *  * *  * *  * * * * * *           *                        
 
  Riff G  When playing this, use the pick for the notes on the D  
  string and your finger very lightly for playing the open F's. 
-|-----------------------------------------------------------------|---------- 
-|----0-----0---------0-----0---------0-----0---------0-----0---0--|---------- 
-|-----------------------------------------------------------------|---------- 
-|-----------------------------------------------------------------|---------- 
-|-5-----5-----7-5-7-----3-----7-5-7-----2-----2-2-3-----3----3----|---------- 
-|-----------------------------------------------------------------|---------- 
                                                                               
  Riff H 
-|-------------------------------------------------------------------|-------- 
-|-------------------------------------------------------------------|-------- 
-|-------------------------------------------------------------------|-------- 
-|-7--7--7--7--7-7-7--7--5--5--7-7-7--7--5--5--7-7-7--7--5--5---5-5--|-------- 
-|-5--5--5--5--7-5-7--7--3--3--7-5-7--7--2--2--7-5-7--7--3--3---3-3--|-------- 
-|-------------------------------------------------------------------|-------- 
                                                                               
  Riff I 
-|-------------------------------------------------------------------|-------- 
-|-------------------------------------------------------------------|-------- 
-|-------------------------------------------------------------------|-------- 
-|-7--7--7--7--7-7-7--7--5--5--7-7-7--7--5--5--7-7-7--7--5--5---4-2--|-------- 
-|-5--5--5--5--7-5-7--7--3--3--7-5-7--7--2--2--7-5-7--7--3--3---2-0--|-------- 
-|-------------------------------------------------------------------|-------- 
                                                                               
  Riff J 
-|--------------------------------------|------------------------------------- 
-|--------------------------------------|------------------------------------- 
-|--------------------------------------|------------------------------------- 
-|-5--7--5-------------5--7--5----------|------------------------------------- 
-|-5--7--5-------------5--7--5----------|------------------------------------- 
-|-3--5--3--5555-3-5---3--5--3--5555-3--|------------------------------------- 
            **** * *            **** *                                         
 
  Riff K 
-|----------------------------------------|----------------------------------- 
-|----------------------------------------|----------------------------------- 
-|----------------------------------------|----------------------------------- 
-|-5--7--5-------------5--7--5------------|----------------------------------- 
-|-5--7--5-------------5--7--5------------|----------------------------------- 
-|-3--5--3--55--53--5--3--5--3--55-53--5--|----------------------------------- 
            **  **  *           ** **  *                                       
   
  cont. 
-|---------------------------------------|------------------------------------ 
-|---------------------------------------|------------------------------------ 
-|---------------------------------------|------------------------------------ 
-|-5--7--5-------------5--7--5--9--5--7--|------------------------------------ 
-|-5--7--5-------------5--7--5--9--5--7--|------------------------------------ 
-|-5--5--3--55--53--5--3--5--3--7--3--5--|------------------------------------ 
            **  **  *                                                          
 
  Riff L 
-|-----------|---------------------------------------------------------------- 
-|-----------|---------------------------------------------------------------- 
-|-----------|---------------------------------------------------------------- 
-|-----------|---------------------------------------------------------------- 
-|-----------|---------------------------------------------------------------- 
-|-55555555--|---------------------------------------------------------------- 
   ********                                                                    
 
  Riff M 
-|-------------------------------------------------------|-------------------- 
-|-------------------------------------------------------|-------------------- 
-|-------------------------------------------------------|-------------------- 
-|-------------------------------------------------------|-------------------- 
-|-------------------------------------------------------|-------------------- 
-|-3--5--3--7--3--5--3--5--3--7--3--5--3--5--3--7--3--5--|-------------------- 
   *  *  *  *  *  *  *  *  *  *  *  *  *  *  *  *  *  *                        
 
  cont. 
-|--------------------|------------------------------------------------------- 
-|--------------------|------------------------------------------------------- 
-|--------------------|------------------------------------------------------- 
-|--------------------|------------------------------------------------------- 
-|--------------------|------------------------------------------------------- 
-|-3--5--3--55555555--|------------------------------------------------------- 
   *  *  *  ********                                                           
 
  Riff N 
-|-------------------------------------------------------|-------------------- 
-|-------------------------------------------------------|-------------------- 
-|-------------------------------------------------------|-------------------- 
-|-------------------------------------------------------|-------------------- 
-|-5--7--5--9--5--9--5--7--5--9--5--9--5--7--5--9--5--7--|-------------------- 
-|-3--5--3--7--3--7--3--5--3--7--3--7--3--5--3--7--3--5--|-------------------- 
                                                                               
  cont. 
-|--------------------|------------------------------------------------------- 
-|--------------------|------------------------------------------------------- 
-|--------------------|------------------------------------------------------- 
-|--------------------|------------------------------------------------------- 
-|-5--7--5------------|------------------------------------------------------- 
-|-3--5--3--55555555--|------------------------------------------------------- 
            ********                                                           
 
  Riff O 
-|-------------------------------------------------------------------------|-- 
-|-------------------------------------------------------------------------|-- 
-|-------------------------------------------------------------------------|-- 
-|-7--7--7-----------7--7--5-----------7--7--5-----------7--7--5-----------|-- 
-|-5--5--5--555-7-5--7--7--3--555-7-5--7--7--2--555-7-5--7--7--3--333-3-3--|-- 
-|-------------------------------------------------------------------------|-- 
            *** * *           *** * *           *** * *           *** * *      
 
  Riff P 
-|-----------------------------------------------------------------------|---- 
-|-----------------------------------------------------------------------|---- 
-|-----------------------------------------------------------------------|---- 
-|-7--7--7-----------7--7--5-----------7--7--5-----------7--7--5---------|---- 
-|-5--5--5--555-7-5--7--7--3--555-7-5--7--7--2--555-7-5--7--7--3--333-3--|---- 
-|-----------------------------------------------------------------------|---- 
            *** * *           *** * *           *** * *           *** *        
 
  Riff Q 
-|------------------------------------------------------------|--------------- 
-|------------------------------------------------------------|--------------- 
-|------------------------------------------------------------|--------------- 
-|------------------------------------------------------------|--------------- 
-|-5--5--5--5--7-5-7--7--3--3--7-5-7--7--3--3--7-5-7--3----3--|--------------- 
-|-5--5--5--5--7-5-7--7--3--3--7-5-7--7--2--2--7-5-7--3----3--|--------------- 
                                                                               
  Riff R 
-|-------------------------------------------------------|-------------------- 
-|-------------------------------------------------------|-------------------- 
-|-------------------------------------------------------|-------------------- 
-|----------------------------------------------------3--|-------------------- 
-|-5--5--5--5--7-5-7--7--3--3--7-5-7--7--3--3--7-5-7--3--|-------------------- 
-|-5--5--5--5--7-5-7--7--3--3--7-5-7--7--2--2--7-5-7--3--|-------------------- 
                                                                               
Arrangement: 
 
Riff A (x8) 
Riff B (x3) 
Riff C (x1) 
Riff B (x3) 
Riff C (x1) 
Riff D (x7) 
Riff E (x1) 
Riff C (x8) 
Riff F (x1) 
Riff E (x1) 
Riff D (x7) 
Riff E (x1) 
Riff G (x2) 
Riff H (x1) 
Riff I (x1) 
Riff J (x4) 
Riff K (x2) 
Riff L (x2) 
Riff M (x2) 
Riff N (x2) 
Riff B (x4) 
Riff C (x3) 
Riff A (x1) 
Riff G (x2) 
Riff H (x2) 
Riff O (x1) 
Riff P (x1) 
Riff Q (x3) 
Riff R (x1) 
End





Comments


Popular Fear Factory tabs & chords
Powershifter Bass Tabs
Back The Fuck Up Drum Tabs
Bite The Hand That Bleeds 2 Tabs
Contagion Tabs
Moment Of Impact 1 Tabs
Obsolete 1 Tabs
Pisschrist 1 Tabs
Scumgrief 2 Tabs
Slave Labor Tabs
Smasher Devourer Tabs


Song lyrics



↑ Back to top | Tablatures and chords are parodies/interpretations of the original songs. You may use it for private study, scholarship, research or language learning purposes only
© 2014 AZChords.com Contact us | Privacy policy | DMCA | Add/correct tabs | Request tabs | Top 50 tabs