» » »

School Tabs (ver.1)

Artists:  A B C D E F G H I J K L M N O P Q R S T U V W X Y Z # 

School Tabs (ver.1)

Fear Factory
Rating:
0/5 (0 votes)

Hard to play? Try these video lessons and learn fast.
                so this song is of the new album arch type and its a cover of the nirvana track school.
i no that fear factory use a 7 string but it would apear that this song dosent use one.

Tuning:E standard 

e|----------------------------------------------------------------
B|----------------------------------------------------------------
G|----------------------------------------------------------------
D|-------------------------------8--------------------------------
A|-------------------------------8--------------------------------
E|-0-0-0--6p0--0--6p0-0-0-0-0-0--6--------------------------------

e|----------------------------------------------------------------
B|----------------------------------------------------------------
G|----------------------------------------------------------------
D|--8--8-8-8---7777777--------------------------------------------
A|--8--8-8-8---7777777--------------------------------------------
E|--6--6-6-6---5555555--------------------------------------------

e|----------------------------------------------------------------
B|----------------------------------------------------------------
G|----------------------------------------------------------------
D|--2--2-2-2---5555555--------------------------------------------
A|--2--2-2-2---5555555--------------------------------------------
E|--0--0-0-0---3333333--------------------------------------------

this next bit is a small lead bit (if u can call it that)remember its supposed to sound sloppy.

e|--------------------------9--(each time u play this line move last note up)
B|------------7---8-8--9-9----------------------------------------
G|-----6-6-6------------------------------------------------------
D|----------------------------------------------------------------
A|----------------------------------------------------------------
E|----------------------------------------------------------------

e|----------------------------------------------------------------
B|----------------------------------------------------------------
G|----------------------------------------------------------------
D|-----------8--------8------------8------------------------------
A|-----------8--------8------------8------------------------------
E|--0--0000--6--0000--6--00000000--6------------------------------

after the bit above the bass plays the verse alone then u come back in for the chours to end the song

and thats it nice and simple / i dont no if its the sames as the nivana version
as im not a fan but this is a good song BY (((FF)))

please rate this and check out by damage plan tabs
            
Hard to play? Try these video lessons and learn fast. | Correct




comments powered by Disqus
↑ Back to top | Tablatures and chords are parodies/interpretations of the original songs. You may use it for private study, scholarship, research or language learning purposes only