» » »

Replica Tabs (ver.1)

Artists:  A B C D E F G H I J K L M N O P Q R S T U V W X Y Z # 

Replica Tabs (ver.1)

Fear Factory
Rating:
0/5 (0 votes)

Hard to play? Try these video lessons and learn fast.
                
Tune down 2 steps ... ( I think )
or use dropped-d tuning

Play x times
E--------------------------------------------------------------
B--------------------------------------------------------------
G--------------------------------------------------------------
D--------------------------------------------------------------
A--------------------------------------------------------------
E-0-0-0-0-0-0-3-------3-3-3-5------2-2-2-2-3-----3-3-3-1-------

then...
E--------------------------------------------------------------
B--------------------------------------------------------------
G--------------------------------------------------------------
D-2-2-2-2-2-2-5-------5-5-5-7------0-0-0-0-5-----5-5-5-3-------
A-2-2-2-2-2-2-5-------5-5-5-7------0-0-0-0-5-----5-5-5-3-------
E-0-0-0-0-0-0-3-------3-3-3-5------2-2-2-2-3-----3-3-3-1-------


Bridge
E--------------------------------------------------------------
B--------------------------------------------------------------
G--------------------------------------------------------------
D-5-7-4-7-9-6-----5-7-4------0-0-0-0-0-0-0-0-0-0-0-0-0-0-0-0-0-
A-5-7-4-7-9-6-----5-7-4------0-0-0-0-0-0-0-0-0-0-0-0-0-0-0-0-0-
E-3-5-2-5-7-4-----3-5-2------2-2-2-2-2-2-2-2-2-2-2-2-2-2-2-2-2-



Please have fun .........
            
Hard to play? Try these video lessons and learn fast. | Correct




comments powered by Disqus
↑ Back to top | Tablatures and chords are parodies/interpretations of the original songs. You may use it for private study, scholarship, research or language learning purposes only