» » »

Fear Factory, Repentance Tabs (ver.1)

Artists:  A B C D E F G H I J K L M N O P Q R S T U V W X Y Z # 

Repentance Tabs (ver.1)

Fear Factory Tabs
 Rating:
4/5 (4 votes)
Repentance lessons Tabs too difficult? Try these video lessons and learn fast
1
                

Tuning: 7 String - Standard            (B E A D G B E)
        6 String - 2 & 1/2 Steps Down



INTRO
B|----------------------------------------  ---------|
G|----------------------------------------  ---------|
D|----------------------------------------  ---------|
A|----------------------------------------  ---------|
E|-8-----8-----8--------8--------8--9--8--  ---------|
B|-6--6--6--6--6--6--6--6--6--6--6--7--6--  -6-6-6-6-|
      .     .     .  .     .  .              . . . . 



VERSE                        1 End__________________  2___________________
B|-----------------------    -----------------------  --------------------
G|-----------------------    -----------------------  --------------------
D|-----------------------    -----------------------  --------------------
A|----------------------- 3x -----------------------  --------------------
E|-5-------------6----6--    -5----------5-----5----  -5----------5\-3----
B|-3----3--3--3--4----4--    -3----3--3--3--3--3--3-  -3----3--3--3\-1----
        .  .  .                    .  .     .     .         .  .

  3_______________________________________________________________________
B|------------------------------------------------------------------------|
G|------------------------------------------------------------------------|
D|------------------------------------------------------------------------|
A|------------------------------------------------------------------------|
E|-5----------5-----5-----5----------5-----5-----5----------5-----5-----5-|
B|-3----3--3--3--3--3--3--3----3--3--3--3--3--3--3----3--3--3--3--3--3--3-|
        .  .     .     .       .  .     .     .       .  .     .     .



PRE CHORUS 
B|------------------------------------|
G|------------------------------------|
D|------------------------------------|
A|------------------------------------|
E|------------------------------------|
B|-2--1-----2--1-----2--1-----2--1----|




CHORUS
B|-------------------------------------------    ---------------------|
G|-------------------------------------------    ---------------------|
D|-------------------------------------------    ---------------------|
A|------------------------------------------- 3x ---------------------|
E|-------------------------------------------    --------------3---5--|
B|-1--0------10\--------1--0------10--8--10--    -1-0-0--0--0--1---3--|
   .                    .                         . . .  .  .





(Look At Me...)
B|----------------------    --------------------|
G|----------------------    --------------------|
D|----------------------    --------------------|
A|---------------------- 3x --------------------|
E|-------------3-----5--    ------------8-----8-|
B|-1--0-----0--1-----3--    -1--0----0--6--6--6-|
   .        .                .       .     .
            
Submit corrections

comments powered by Disqus
↑ Back to top | Fear Factory Tabs for Repentance. Lyrics for acoustic guitar and electric guitar. 1 Tablatures and chords are parodies/interpretations of the original songs. You may use it for private study, scholarship, research or language learning purposes only