» » »

Fear Factory, Machine Debaser Bass tabs (ver.1)

Artists:  A B C D E F G H I J K L M N O P Q R S T U V W X Y Z # 

Machine Debaser Bass tabs (ver.1)

Fear Factory Tabs
 Rating:
4/5 (4 votes)
Machine Debaser lessons Tabs too difficult? Try these video lessons and learn fast
                Fear Factory - Machine Debaser


Tuning:(ADGDF#B)

|---------------------
|---------------------
|---------------------
|---------------------
|---------------------
|-1-0-1-0-1-0-1-0-1-0-
pm* * * * * * * * * * 

|------------
|------------
|------------
|------------
|-2232232232-
|-0010010010-

|---------------------
|---------------------
|---------------------
|---------------------
|-3-2-3-2-3-2-3-2-3-2-
|-1-0-1-0-1-0-1-0-1-0-

|------------------------------------------------------
|------------------------------------------------------
|------------------------------------------------------
|------------------------------------------------------
|-22232-2-3-2-22232-2-3-2-22232-2-3-2--222-333-222-333-
|-00010-0-1-0-00010-0-1-0-00010-0-1-0--000-111-000-111-

|----------------------------------------
|----------------------------------------
|---------------------------------7777b9 <- the closest you can get, it's a studio effect
|----------------------------------------
|----------------------------------------
|-100-1-0-1-0-1-0-100-1-0-1-0-1-0--------

the high 5's (eh?! :) should be played in this order: ring finger, middle finger, index finger x2
|---------------------------
|---------------------------
|---5-----5-----5-----5-----
|---------------------------
|-5---5-6---6-7---7-8---6-5-
|-3---3-4---4-5---5-6---4-3-
            
Submit corrections

comments powered by Disqus
↑ Back to top | Fear Factory Bass for Machine Debaser. Lyrics for acoustic guitar and electric guitar. Tablatures and chords are parodies/interpretations of the original songs. You may use it for private study, scholarship, research or language learning purposes only