>
 >
Linchpin 2

Linchpin 2 Guitar Tabs

Fear Factory - Linchpin 2 chords, tabs, tablatures, lyrics

Guitar lessons | Add/correct | Request | Top 50 tabs Artists:  A B C D E F G H I J K L M N O P Q R S T U V W X Y Z 0-9

Linchpin 2 Guitar Tabs – Fear Factory

CD, Sheet music, Poster

Do you like Linchpin 2? Share with your friends now
Bass TabsBass Tabs v2Bass Tabs v3Drum TabsTabsTabs v2Tabs v3
Fear Factory
Linchpin
Digimortal

Riff A:            Riff B:               Riff B:
E|------------|    E|---------------|    E|----------|
B|------------|    B|---------------|    B|----------|
G|------------|    G|---------------|    G|----------|
D|------------|    D|---------------|    D|----------|
A|------------|    A|---------------|    A|----------|
E|------------|    E|---------------|    E|----------|
B|---3p2--3p2-|    B|---2--3p2--3p2-|    B|---2--3p2-|


Riff D:
E|-------------|    |-----------------|
B|-------------|    |-----------------|
G|-------------|    |-----------------|
D|-------------| X3 |-----------------|
A|-------------|    |-----------------|
E|-------------|    |-----------------|
B|---3--2-3-3--|    |--3--2--3-3--3---|
PM   \______/          \__________/


Riff E:
E|-----------------|
B|-----------------|
G|-----------------|
D|-----------------|
A|-----------------|
E|-----------------|
B|---2222-2--2-2-2-|
PM   \___________/


Riff F:
E|-----------|    |---------|
B|-----------|    |---------|
G|-----------|    |---------|
D|-----------| X3 |---------|
A|-----------|    |---------|
E|-----------|    |---------|
B|---3--2-3-3|    |--333333-|
PM   \______/        \____/


Riff G:
E|-----------------------------|    |--------------------|
B|-----------------------------|    |--------------------|
G|-----------------------------|    |--------------------|
D|-----------------------------| X3 |--------------------|
A|-----------------------------|    |--------------------|
E|-----------------------------|    |------------4--4--4-|
B|---22222222-2222--2--2-2-2---|    |--22222222--2--2--2-|
PM   \_____________________/           \_______________/


Riff H:
|-----------------------------------------------------------------------------|
|-----------------------------------------------------------------------------|
|-----------------------------------------------------------------------------|
|---------------6------6---------------------------------6------6-------------|
|---4-----------6---6--6---7---7---6--7--6---4-----------6---6--6---5----6--7-|
|---4--4-4-4-4--4---4--4---7---7--x7--7--7---4--4-4-4-4--4---4--4---5----7--7-|
|---2--2-2-2-2-------------5---5--x4--5--4---2--2-2-2-2-------------3----4--5-|
PM     \_____/      _                           \_____/      _
 
Riff I:
E|----------------------------|-------------|
B|----------------------------|-------------|
G|----------------------------|-------------|
D|-----6------------6-----6---|-------------|
A|-------7-------------7----7-|---4---3---4-|
E|---------------7------------|---4---3---4-|
B|---5------4-5---------------|---2---1---2-|

Riff J:
E|---------------------------------|
B|---------------------------------|
G|---------------------------------|
D|------6------------6-----6-------|
A|--------7-------------7----------|
E|----------------7-----------2--2-|
B|---5-------4-5--------------0--0-|
PM                            \__/

Riff K:
E|-------------|
B|-------------|
G|-------------|
D|-------------|
A|---4---3---4-|
E|---4---3---4-|
B|---2---1---2-|

Riff L:
E|------------------------------| 
B|------------------------------|
G|------------------------------|
D|------------------------------|
A|---4----------3----------3--4-|
E|---4----------3----------3--4-|
B|---2-2-2-2-2--1-1-1-1-1--1--2-|
PM     \_____/    \_____/

Riff M:
E|------------------------|
B|------------------------|
G|------------------------|
D|------------------------|
A|---4-------3-------3--4-|
E|---4-------3-------3--4-|
B|---2-2222--1-1111--1--2-|
PM     \__/    \__/ 

Riff N:
E|------------------------------|
B|------------------------------|
G|------------------------------|
D|------------------------------|
A|---4-------3------------------|
E|---4-------3------------------|
B|---2-2222--1-1-1-1-1-1-1-1-1--|
PM     \__/    \_____________/

Riff O:
E|----------------|    |----------------|
B|----------------|    |----------------|
G|----------------|    |----------------|
D|----------------| X3 |----------------|
A|---4------4-----|    |---2------2-----|
E|---2-2-2--2-2-2-|    |---0-0-0--0-0-0-|
B|----------------|    |----------------|
PM     \_/    \_/            \_/    \_/
 
Riff P:
E|------------------|    |----------------------------------------|
B|------------------|    |----------------------------------------|
G|------------------|    |----------------------------------------|
D|------------------| X2 |----------------------------------------|
A|---4------4-------|    |-3----7--------3---7---------3---7----4-|
E|---2-2-2--2-2-2---|    |-3----7---2-3--3---7----2-3--3---7----4-|
B|------------------|    |-1----5---0-1--1---5----0-1--1---5----2-|
PM     \_/    \_/                   \_/           \_/



Riff Order:

Riff A
Riff B X6
Riff C
1 Sec. Pause
Riff A
Riff B X11
Riff D
8 Sec. Pause
Riff E
4 Sec. Pause
Riff F
1 Sec. Pause
Riff G
Riff H
Riff I X3
Riff J
Riff K
Riff A
Riff B X6
Riff C
Riff L
8 Sec. Pause
Riff E
4 Sec. Pause
Riff F
1 Sec. Pause
Riff G
Riff H 
Riff I X3
Riff J
Riff L X4
Riff M X3
Riff N
Riff I X4
Riff O X3
Riff P





Comments


Popular Fear Factory tabs & chords
Cars 3 Bass Tabs
Corporate Cloning 1 Bass Tabs
Invisible Wounds 3 Bass Tabs
Machine Debaser Bass Tabs
Demanufacture 2 Tabs
Flashpoint  1 Tabs
Obsolete 1 Tabs
Resurrection Tabs
Self Immolation Tabs
Shock Tabs


Song lyrics



↑ Back to top | Tablatures and chords are parodies/interpretations of the original songs. You may use it for private study, scholarship, research or language learning purposes only
© 2014 AZChords.com Contact us | Privacy policy | DMCA | Add/correct tabs | Request tabs | Top 50 tabs