» » »

Fear Factory, Lifeblind Tabs (ver.1)

Artists:  A B C D E F G H I J K L M N O P Q R S T U V W X Y Z # 

Lifeblind Tabs (ver.1)

Fear Factory Tabs
 Rating:
4/5 (4 votes)
Lifeblind lessons Tabs too difficult? Try these video lessons and learn fast
1
                It's all here.  The fourth riff may 
be a bit wrong,  the chords are right
just listen to the cd.
Tuning:  BEADGBE

Noise for 4 bars.

Intro:
X2
E|--------------------------------------------------
B|--------------------------------------------------
G|--------------------------------------------------
D|--------------------------------------------------
A|--------------------------------------------------
E|--22--22--22--22----------------------------------
B|--00--00--00--00----------------------------------

Then:
           Repeat X4
E|------|-|---------------|-|-----------------------
B|------|-|---------------|-|-----------------------
G|------|-|---------------|-|-----------------------
D|------|0|---------------|0|-----------------------
A|------|0|---------------|0|-----------------------
E|--22--|-|--222--22--22--|-|-----------------------
B|--00--|-|--000--00--00--|-|-----------------------

Verse:
X3                         X1
E|-|--------------------|-|--------------|--------
B|-|--------------------|-|--------------|--------
G|-|--------------------|-|--------------|--------
D|0|--------------------|0|--------------|--------
A|0|---------------2----|0|--------------|--------
E|-|-22-22--222--2-0-2--|-|--222-22--222-|--------
B|-|-00-00--000--0---0--|-|--000-00--000-|--------
                                    PM__|

Next bit:

E|--------------------------------------------------
B|--------------------------------------------------
G|--------------------------------------------------
D|--------------------------------------------------
A|-----------------------------5-5------------------
E|--2--------2--------2--------3-2------------------
B|--0-0-0-0--0-0-0-0--0-0-0-0-----------------------
PM___________________________|

Pre chorus:

E|--------------------------------------------------
B|--------------------------------------------------
G|--------------------------------------------------
D|--------------------------------------------------
A|--------------------2-----------------------------
E|--2--------5--------0-0-0-0-0-0-0-0---------------
B|--0-0-0-0--3-3-3-3-------------------------------
     PM____|  PM____|   PM____________|

Second pre chorus:

E|--------------------------------------------------
B|--------------------------------------------------
G|--------------------------------------------------
D|--------------------------------------------------
A|--------------------------------------------------
E|--------------0000--0000--------------------------
B|--0000--3333--------------------------------------
PM___________________________|

Chorus:
X2
E|-|---------|-|----------------|-------------------
B|-|---------|-|----------------|-------------------
G|-|---------|-|----------------|-------------------
D|0|---------|0|----------------|-------------------
A|0|--5-5-2--|0|----5-5-2-------|-------------------
E|-|2-3p2-0--|-|--2-3p2-0---22--|-------------------
B|-|0--------|-|--0---------00--|------------------- 
                           PM__|



Fill and last chord:

E|--------------------------------------------------
B|--------------------------------------------------
G|--------------------------------------------------
D|--------------------------------------------------
A|--------------------------------------------------
E|--22--22--22--22----------------------------------
B|--00--00--00--00----------------------------------
PM________________|
            
Submit corrections

comments powered by Disqus
↑ Back to top | Fear Factory Tabs for Lifeblind. Lyrics for acoustic guitar and electric guitar. 1 Tablatures and chords are parodies/interpretations of the original songs. You may use it for private study, scholarship, research or language learning purposes only