» » »

Fear Factory, Invisible Wounds (The Suture Mix) Bass tabs (ver.1)

Artists:  A B C D E F G H I J K L M N O P Q R S T U V W X Y Z # 

Invisible Wounds (The Suture Mix) Bass tabs (ver.1)

Fear Factory Tabs
Rating:
0/5 (0 votes)
Invisible Wounds (The Suture Mix) lessons Tabs too difficult? Try these video lessons and learn fast
                Riff 1
G -|--------------------------------------------------------|
D -|--------------------------------------------------------|
A -|--------------------------------------------------------|
E -|--------------222--------------222-4-444-44-44-4222-6>>-|
B -|-5-555-55-55-5----3-333-33-33-3-------------------------|

Riff 2
G -|------------------------------------------------|
D -|------------------------------------------------|
A -|------------------------------------------------|
E -|---------------------------4--------------------|
B -|-5--------6/4-6--------6/4----------6/4-0-------|

Riff 3
G -|--------------------------------------------------------|
D -|--------------------------------------------------------|
A -|--------------------------------------------------------|
E -|--------------222--------------222-4-444-444-44-222-----|
B -|-5-555-555-55-----3-333-333-33--------------------------|

Riff 4
G -|------------------------------|
D -|------------------------------|
A -|------------------------------|
E -|-------------------4--------6-|
B -|-5--------3-------------------|

Riff 5
G -|--------------------------------------------------------|
D -|--------------------------------------------------------|
A -|--------------------------------------------------------|
E -|--------------222--------------222-4-444-444-44-222-6>>-|
B -|-5-555-555-55-----3-333-333-33--------------------------|

G -|--------------------------------------------------------|
D -|--------------------------------------------------------|
A -|--------------------------------------------------------|
E -|--------------222--------------222-4-444-444-44-222-6---|
B -|-5-555-555-55-----3-333-333-33--------------------------|

Song Structure:
Riff 1: 0:13	x1
Riff 2: 0:25	x2
Riff 1: 0:50	x2
Riff 2: 1:16	x2
Riff 1: 1:41	x1
Riff 3: 1:54	x1
pause : 2:06
Riff 4:	2:19	x1
Riff 1: 2:35	x2
Riff 5: 3:00	x1
            

comments powered by Disqus
↑ Back to top | Fear Factory Bass for Invisible Wounds (The Suture Mix). Lyrics for acoustic guitar and electric guitar. Tablatures and chords are parodies/interpretations of the original songs. You may use it for private study, scholarship, research or language learning purposes only