» » »

Fear Factory, Hurt Conveyor Tabs (ver.1)

Artists:  A B C D E F G H I J K L M N O P Q R S T U V W X Y Z # 

Hurt Conveyor Tabs (ver.1)

Fear Factory Tabs
 Rating:
4/5 (4 votes)
Hurt Conveyor lessons Tabs too difficult? Try these video lessons and learn fast
1
                

Tuning: 7-String - Standard            (B E A D G B E)
        6-String - 2 & 1/2 Steps Down


INTRO
A|------------------------------------------------------|
E|------------------------------------------------------|
B|-1-1-0--0--1-1-0--0--1-1-0--0--1-1-0--0--1-1-0--1-1-0-|
   . . .  .  . . .  .  . . .  .  . . .  .  . . .  . . .


(INTRO continued) 
A|---------------------------------------------------------|
E|---------------------------------------------------------|
B|-1-1-0--0--1-1-0--0--1-1-0--0--1-1-0--0--1-1-1-1-1-1-1-1-|
   . . .  .  . . .  .  . . .  .  . . .  .  . . . . . . . .




POWER RIFF
A|---------------------------    ------------------------------|
E|--------------------------- 3x ------------------------------|
B|-1-1-0--0--1-1-0--0--1-1-0-    -1-1-0--0--0--1-1-1-1-1-1-1-1-|
   . . .  .  . . .  .  . . .      . . .  .  .  . . . . . . . .



VERSE
A|-------|  |-------------------------------------------------|
E|-3-3-3-|  |-----------3--------3---------------3-------3----|
B|-1-1-1-|  |-1-1-0--0-----0--0-----0--1-1-0--0-----0--0----0-|
   . . .      . . .  .     .  .     .  . . .  .     .  .    .




CHORUS
A|--------------------------------    -7-7-7-7-7-7-7-7-7-7-7-7-7-7-7-7-|
E|-------------------------------- 3x ---------------------------------|
B|-1-1-0---1---0---1---0---1---0--    ---------------------------------|




(No Part Of This World...)     1______________   2___________________________________
E|-------------------------    ---------------   ------------------------------------
B|----------17-------17----    -----------17--   ------------------------------------
G|----------20-------20---- 3x -----------20--   ------------------------------------
D|-------------------------    ---------------   ------------------------------------
A|-------------------------    ---------------   ------------------------------------
E|-------------------------    ---------------   ------------------------------------
B|-0--0--0-----0--0-----0--    -0--0--0-------   -0--0--0----0-0-0-0-0-0-0-0-0-0-0-0-
   .  .  .     .  .     .       .  .  .           .  .  .    . . . . . . . . . . . .



(I Fall Down...)
D|---------------------------------------------------------------|
A|-4---4---4---4---4---4---4---4---4---4---4---4---4---4---4---4-|
E|-4---4---4---4---4---4---4---4---5---5---5---5---5---5---5---5-|
B|-2---2---2---2---2---2---2---2---2---2---2---2---2---2---2---2-|
   .   .   .   .   .   .   .   .   .   .   .   .   .   .   .   .


(continued)
D|-----------------------------------------------------------------------------------|
A|-4--4--4--4--4--4--4--4--4--4--4--4--4--4--4--4------------------------------------|
E|-4--4--5--5--6--6--7--7--4--4--5--5--6--6--7--7--2-2-2-2-2-2-2-2-2-2-2-2-2-2-2-2-2-|
B|-------------------------------------------------0-0-0-0-0-0-0-0-0-0-0-0-0-0-0-0-0-|
   .  .  .  .  .  .  .  .  .  .  .  .  .  .  .  .  . . . . . . . . . . . . . . . . .
            
Submit corrections

comments powered by Disqus
↑ Back to top | Fear Factory Tabs for Hurt Conveyor. Lyrics for acoustic guitar and electric guitar. 1 Tablatures and chords are parodies/interpretations of the original songs. You may use it for private study, scholarship, research or language learning purposes only