>
 >
H-K Hunter-Killer

H-K Hunter-Killer Guitar Tabs

Fear Factory - H-K Hunter-Killer chords, tabs, tablatures, lyrics

Guitar lessons | Add/correct | Request | Top 50 tabs Artists:  A B C D E F G H I J K L M N O P Q R S T U V W X Y Z 0-9

H-K Hunter-Killer Guitar Tabs – Fear Factory

CD, Sheet music, Poster

Do you like H-K Hunter-Killer? Share with your friends now
Tabs
Song Writen by: Fear Factory

NOTE: Dino Cazares ALWAYS plays on a 7 stringed guitar,
you can play his songs on a 6 string guitar BUT you have to drop most of your strings
3 steps down.

ALL RIFFS ONLY PLAYED ONCE UNLESS TOLD OTHERWISE

		Guitar intro riff#1 (played at 0:58) ALL P.M.
e|-----------------------------------------------------------|
b|-----------------------------------------------------------|
G|-----------------------------------------------------------|
D|-----------------------------------------------------------| 2 Times
A|-----------------------------------------------------------|
E|-----------------------------------------------------------|
B|-4447-4---4447-4---4447-4---4447-7-4447-7------------------|


		Guitar intro riff#2 (played at 1:08) ALL P.M.
e|-----------------------------------------------------------|
b|-----------------------------------------------------------|
G|-----------------------------------------------------------|
D|-----------------------------------------------------------| 2 Times
A|-----------------------------------------------------------|
E|-----------------------------------------------------------|
B|-4447-4--4-4447-4--4-4447-4--4-4447-7-4447-7---------------|


		Guitar intro riff#3 (played at 1:18)) ALL P.M.
e|-----------------------------------------------------------|
b|-----------------------------------------------------------|
G|-----------------------------------------------------------|
D|-----------------------------------------------------------| 2 Times
A|-----------------------------------------------------------|
E|-----------------------------------------------------------|
B|-4447-4--2-4--4447-4--2-4--4447-4--2-4--4447-4--2-4--------|

		Guitar verse Riff#1 (played at 1:28)
e|-----------------------------------------------------------|
b|-----------------------------------------------------------|
G|-----------------------------------------------------------|
D|-----------------------------------------------------------| 2 Times
A|------------------------7\6--------------------------7\6---|
E|------------------------5\4--------------------------5\4---|
B|-4447-4--2-4--4447-4--4-------4447-4--2-4--4447-4--4-------|
PM ......................       ......................

		Guitar verse riff#2 (played at 1:37)
e|-----------------------------------------------------------|
b|-----------------------------------------------------------|
G|-----------------------------------------------------------|
D|-----------------------------------------------------------| 2 Times
A|----------4\6-----------4\6-----------4\6-----------4\6----|
E|-----6--6-5\7------6--6-5\7------6--6-5\7------6--6-5\7----|
B|-447-4--4------447-4--4------447-4--4------447-4--4--------|
PM....           ...           ...           ... 

		Guitar pre-chorus riff#1 (played at 1:47) NO P.M.
e|-----------------------------------------------------------|
b|-----------------------------------------------------------|
G|-----------------------------------------------------------|
D|-----------------------------------------------------------|
A|------7~~--6~~--4~~-------7~~--6~~-------------------------|
E|-6~~--5~~--4~~--2~~--6~~--5~~--4~~-------------------------|
B|-4~~-----------------4~~------------4447-7-4447-7----------|


		Guitar verse riff#2 (played at 1:57)
e|-----------------------------------------------------------|
b|-----------------------------------------------------------|
G|-----------------------------------------------------------|
D|-----------------------------------------------------------| 2 Times
A|----------4\6-----------4\6-----------4\6-----------4\6----|
E|-----6--6-5\7------6--6-5\7------6--6-5\7------6--6-5\7----|
B|-447-4--4------447-4--4------447-4--4------447-4--4--------|
PM....           ...           ...           ... 

		Guitar chorus riff (played at 2:07) ALL P.M.
e|-----------------------------------------------------------| \
b|-----------------------------------------------------------|  \
G|-----------------------------------------------------------|   \
D|-----------------------------------------------------------|    \
A|-----------------------------------------------------------|     \
E|-----------------5555555555555555--------------------------|      \
B|-4444444444444444------------------------------------------|       \
						               > 4 Times
e|-----------------------------------------------------------|       /
b|-----------------------------------------------------------|      /
G|-----------------------------------------------------------|     /
D|-----------------------------------------------------------|    /
A|-----------------------------------------------------------|   /
E|-44444444444444442222222222222222--------------------------|  /
B|-----------------------------------------------------------| /

		Guitar pre-Brigde riff (played at 2:25) ALL P.M.
e|-----------------------------------------------------------|
b|-----------------------------------------------------------|
G|-----------------------------------------------------------|
D|-----------------------------------------------------------|
A|-----------------------------------------------------------|
E|-----------------------------------------------------------|
B|-4-5-6-7-4-5-6-7-4444444444444444-3-4-6-7-3-4-6-7-22222222-|
PM                 ................                 ........

		Guitar Brigde riff#1 (played at 2:32) ALL P.M.
e|-----------------------------------------------------------|
b|-----------------------------------------------------------|
G|-----------------------------------------------------------|
D|-----------------------------------------------------------| 5 Times
A|---------------------------------------------------4\5-5-7-|
E|---------------------------------------------------2\3-3\5-|
B|-4-5-6-7-4-5-6-7-44444444-3-4-6-7-3-4-6-7-22222222---------|
PM                 ........                 ........
		Guitar Bridge riff#2 (played at 2:55) ALL P.M.
e|-----------------------------------------------------------|
b|-----------------------------------------------------------|
G|-----------------------------------------------------------|
D|-----------------------------------------------------------| 2 Times
A|-----------------------------------------------------------|
E|-----------------------------------------------------------|
B|-7-8-9-10-7-8-9-10-7-8-9-10-7-8-9-10-----------------------|

		Guitar Bridge riff#3 (played at 3:00) ALL P.M.
e|-----------------------------------------------------------|
b|-----------------------------------------------------------|
G|-----------------------------------------------------------|
D|-----------------------------------------------------------| 2 Times
A|-----------------------------------------------------------|
E|-------------------------6----------------------------6----|
B|-4-5-6-7-4-5-6-7-4-5-6-7-4----4-5-6-7-4-5-6-7-4-5-6-7-4----|

		Guitar ending bridge riff (played at 3:10)
e|-----------------------------------------------------------|
b|-----------------------------------------------------------|
G|------------------------------------ silent ---------------|
D|------------------------------------- part ----------------|
A|-----------------------------------------------------------|
E|-66666666~~~-----------------------------------------------|
B|-44444444~~~-----------------------------------------------|

		Guitar pre-verse riff (played at 3:19) 
e|-----------------------------------------------------------|
b|-----------------------------------------------------------|
G|-----------------------------------------------------------|
D|-----------------------------------------------------------|
A|-----------------------------------------------------------|
E|-------------------------------------------6~--6~--6~--6~--|
B|-4447-7-4447-7-4447-7-4447-7-4447-7-4447-7-4~--4~--4~--4~--|


		Guitar verse riff#2 (played at 3:24)
e|-----------------------------------------------------------|
b|-----------------------------------------------------------|
G|-----------------------------------------------------------|
D|-----------------------------------------------------------| 4 Times
A|----------4\6-----------4\6-----------4\6-----------4\6----|
E|-----6--6-5\7------6--6-5\7------6--6-5\7------6--6-5\7----|
B|-447-4--4------447-4--4------447-4--4------447-4--4--------|
PM....           ...           ...           ... 

		Guitar chorus riff (played at 3:44) ALL P.M.
e|-----------------------------------------------------------| \
b|-----------------------------------------------------------|  \
G|-----------------------------------------------------------|   \
D|-----------------------------------------------------------|    \
A|-----------------------------------------------------------|     \
E|-----------------5555555555555555--------------------------|      \
B|-4444444444444444------------------------------------------|       \
								      > 4 Times
e|-----------------------------------------------------------|       /
b|-----------------------------------------------------------|      /
G|-----------------------------------------------------------|     /
D|-----------------------------------------------------------|    /
A|-----------------------------------------------------------|   /
E|-44444444444444442222222222222222--------------------------|  /
B|-----------------------------------------------------------| /

		Guitar outro riff (played at 4:03) ALL P.M.
e|-----------------------------------------------------------|
b|-----------------------------------------------------------|
G|-----------------------------------------------------------|
D|-----------------------------------------------------------| 2 Times
A|-----------------------------------------------------------|
E|-6--6--6--6-6-4--4--4--4-4-7--7--7--7-7-6--6--6--6-6-------|
B|-4--4--4--4-4-2--2--2--2-2-5--5--5--5-5-4--4--4--4-4-------|

		Guitar Brigde riff#1 (played at 4:13) ALL P.M.
e|-----------------------------------------------------------|
b|-----------------------------------------------------------|
G|-----------------------------------------------------------|
D|-----------------------------------------------------------| 5 Times
A|---------------------------------------------------4\5-5-7-|
E|---------------------------------------------------2\3-3\5-|
B|-4-5-6-7-4-5-6-7-44444444-3-4-6-7-3-4-6-7-22222222---------|

		Guitar outro/Bridge Riff (played at 4:33)
e|-----------------------------------------------------------|
b|-----------------------------------------------------------|
G|-----------------------------------------------------------|
D|-----------------------------------------------------------| 2 Times
A|-----------------------------------------4\5-5\7-----------|
E|-----------------6~~------------------4~-2\3-3\5-----------|
B|-4-5-6-7-4-5-6-7-4~~--3-4-6-7-3-4-6-7-2~-------------------|

		Guitar chorus riff (played at 4:42)) ALL P.M.
e|-----------------------------------------------------------| \
b|-----------------------------------------------------------|  \
G|-----------------------------------------------------------|   \
D|-----------------------------------------------------------|    \
A|-----------------------------------------------------------|     \
E|-----------------5555555555555555--------------------------|      \
B|-4444444444444444------------------------------------------|       \
								      > 6 Times
e|-----------------------------------------------------------|       /
b|-----------------------------------------------------------|      /
G|-----------------------------------------------------------|     /
D|-----------------------------------------------------------|    /
A|-----------------------------------------------------------|   /
E|-44444444444444442222222222222222--------------------------|  /
B|-----------------------------------------------------------| /

				(played at 5:11) ALL P.M.
e|-----------------------------------------------------------|
b|-----------------------------------------------------------|
G|------------------------------------- end -----------------|
D|-------------------------------------- of -----------------|
A|------------------------------------  song ----------------|
E|-6-6-9-6---------------------------------------------------|
B|-4-4-7-4---------------------------------------------------|

thank you, goodnight





Comments


Popular Fear Factory tabs & chords
Dog Day Sunrise 4 Bass Tabs
Hunter Killer Bass Tabs
Linchpin 2 Bass Tabs
Back The Up Tabs
Dog Day Sunrise 1 Tabs
Invisible Wounds 2 Tabs
Moment Of Impact 1 Tabs
Resurrection Tabs
Scum Grief Tabs
Strain Vs Resistence Tabs


Song lyrics



↑ Back to top | Tablatures and chords are parodies/interpretations of the original songs. You may use it for private study, scholarship, research or language learning purposes only
© 2014 AZChords.com Contact us | Privacy policy | DMCA | Add/correct tabs | Request tabs | Top 50 tabs