» » »

Hi-Tech Hate Tabs (ver.1)

Artists:  A B C D E F G H I J K L M N O P Q R S T U V W X Y Z # 

Hi-Tech Hate Tabs (ver.1)

Fear Factory
Rating:
0/5 (0 votes)

Hard to play? Try these video lessons and learn fast.
                
Tuning: 7 String - 1 Step Down          (A D G C F A D)
        6 String - 3 & 1/2 Steps Down 


INTRO                                 FILL
C|------------------------------|     |--------------------------------|
G|------------------------------|     |--------------------------------|
D|-3-3----------------4---3-3---|     |-3-3----------------4-4-3-3-----|
A|-----2-2----3---5-----------2-|     |-----2-2----3-3-5-5---------2-2-|
   . . . .    .   .   .   . . .         . . . .    . . . . . . . . . .


FILL
C|------------------------------|
G|--------------------6---5-----|
D|-3-3--------5---7---4---3---4-|
A|-----2-2----3---5-----------2-|
   . . . .



VERSE
C|------------------------------|
G|-3------------------6---5-----|
D|-1---4-4----5---7---4---3---4-|
A|-----2-2----3---5-----------2-|
                             (.) 


(Cowards To War...)
C|----------------  -------------  -------------  -------------  -------------|
G|----------------  -------------  -------------  -------------  -------------|
D|----------------  -4-4-3-3-3-3-  -3-3-2-2-2-2-  -2-2-1-1-1-1-  -1-1-0-0-0-0-|
A|-3--4-3--4-3--4-  -------------  -------------  -------------  -------------|
   .  . .  . .  .    . . . . . .    . . . . . .    . . . . . .    . . . . . .


C|----------------  ---------------  ---------------  ---------------  ------------|
G|----------------  ---------------  ---------------  ---------------  ------------|
D|----------------  4p3-4p3-4p3-4p3  3p2-3p2-3p2-3p2  2p1-2p1-2p1-2p1  1-1-0-0-0-0-|
A|-3--4-3--4-3--4-  ---------------  ---------------  ---------------  ------------|
   .  . .  . .  .   .   .   .   .    .   .   .   .    .   .   .   .    . . . . . .



CHORUS
C|-7--7--7--7--9---9---9---5--5--5--5--9---9---9-|
G|-7--7--7--7--9---9---9---5--5--5--5--9---9---9-| 3x
D|-5--5--5--5--7---7---7---3--3--3--3--7---7---7-|
A|-----------------------------------------------|


C|-4--4--4--4--5---5---5-----------------------------|
G|-4--4--4--4--5---5---5---5---5---5---5---5---5---5-|
D|-2--2--2--2--3---3---3---5---5---5---5---5---5---5-|
A|-------------------------4p3-4p3-4p3-4p3-3---3---3-|
                           .   .   .   .   .   .   .


SPEED CHORUS
C|-7-7-7-7-7-7-7-7-9---9---9---5-5-5-5-5-5-5-5-9---9---9-|
G|-7-7-7-7-7-7-7-7-9---9---9---5-5-5-5-5-5-5-5-9---9---9-| 
D|-5-5-5-5-5-5-5-5-7---7---7---3-3-3-3-3-3-3-3-7---7---7-|
A|-------------------------------------------------------|
   . . . . . . . .             . . . . . . . .


C|-4-4-4-4-4-4-4-4-5---5---5-----------------------------|
G|-4-4-4-4-4-4-4-4-5---5---5---5-5-5-5-5-5-5-5-5---5---5-|
D|-2-2-2-2-2-2-2-2-3---3---3---5-5-5-5-5-5-5-5-5---5---5-|
A|-----------------------------3-3-3-3-3-3-3-3-3---3---3-|
   . . . . . . . .             . . . . . . . . .   .   .



OUTRO
C|---------------------------|
G|-5-5-5-5-5-5-5-5-5---5---5-|
D|-5-5-5-5-5-5-5-5-5---5---5-|
A|-3-3-3-3-3-3-3-3-3---3---3-|
   . . . . . . . . .   .   .
            
Hard to play? Try these video lessons and learn fast. | Correct




comments powered by Disqus
↑ Back to top | Tablatures and chords are parodies/interpretations of the original songs. You may use it for private study, scholarship, research or language learning purposes only