» » »

Final Exit Tabs (ver.2)

Artists:  A B C D E F G H I J K L M N O P Q R S T U V W X Y Z # 

Final Exit Tabs (ver.2)

Fear Factory
Rating:
0/5 (0 votes)

Tabs too difficult? Try these video lessons and learn fast.
                

Tuning: C,A,D,G,B,E (I know its wierd but it saves you tuning 
all to a,d,g,c,f,a,d and buying a seven string)

Intro/Verse:

e|--------------------------------------------------------------------------------|
B|----0-----0-----0-------0-------0----0-----0------0-----------------------------|
G|-----0-----0-----0-------0-------0----0-----0------0----------------------------|
D|--5-----5------5------5-------5----5-----5------5-------------------------------|
A|-3-3---3-3--5--------------5-3-3--3-3--5----------------------------------------|
C|--------------7-7--7-6-6----------------7-7--7-9-9------------------------------|

Its quite an expirience to hold the hand of someone as they move from living to dead..

Pre-Verse:

e|-X-XX-X-XX-X-X-XX-X-XX-X-X--X-XX-X-XX-X-X-XX-X-XX-X-X-X-XX-X-XX-X-X-XX-X-XX-X-X-|
B|-X-XX-X-XX-X-X-XX-X-XX-X-X--0-00-0-00-0-0-00-0-00-0-0-0-00-0-00-0-0-00-0-00-0-0-|
G|-5-55-5-55-5-5-55-5-55-5-5--0-00-0-00-0-0-00-0-00-0-0-0-00-0-00-0-0-00-0-00-0-0-|
D|-5-55-5-55-5-5-55-5-55-5-5--5-55-5-55-5-5-55-5-55-5-5-5-55-5-55-5-5-55-5-55-5-5-|
A|-3-33-3-33-3-3-33-3-33-3-3--5-55-5-55-5-5-55-5-55-5-5-5-55-5-55-5-5-55-5-55-5-5-|
C|-0-00-0-00-0-0-00-0-00-0-0--7-77-7-77-7-7-77-7-77-7-7-6-66-6-66-6-6-66-6-66-6-6-|

Verse:

e|---------------------------------------------------------------------------|
B|----0-----0-----0-------0-------0----0-----0------0------------------------|
G|-----0-----0-----0-------0-------0----0-----0------0-----------------------|
D|--5-----5------5------5-------5----5-----5------5--------------------------|
A|-3-3---3-3--5--------------5-3-3--3-3--5-----------------------------------|
C|--------------7-7--7-6-6----------------7-7--7-9-9-------------------------|
  Your life no longer.. Has any value.. let them tell you what..(So On)

Chorus:

e|-X-XX-X-XX-X-X-XX-X-XX-X-X--X-XX-X-XX-X-X-XX-X-XX-X-X-X-XX-X-XX-X-X-XX-X-XX-X-X-|
B|-X-XX-X-XX-X-X-XX-X-XX-X-X--0-00-0-00-0-0-00-0-00-0-0-0-00-0-00-0-0-00-0-00-0-0-|
G|-5-55-5-55-5-5-55-5-55-5-5--0-00-0-00-0-0-00-0-00-0-0-0-00-0-00-0-0-00-0-00-0-0-|
D|-5-55-5-55-5-5-55-5-55-5-5--5-55-5-55-5-5-55-5-55-5-5-5-55-5-55-5-5-55-5-55-5-5-|
A|-3-33-3-33-3-3-33-3-33-3-3--5-55-5-55-5-5-55-5-55-5-5-5-55-5-55-5-5-55-5-55-5-5-|
C|-0-00-0-00-0-0-00-0-00-0-0--7-77-7-77-7-7-77-7-77-7-7-6-66-6-66-6-6-66-6-66-6-6-|
   Contemplate.. your last breath.. as you see.. the face of death.. (so on)

Bridge(small):

e|-X-XX-X-XX-X-X-XX-X-XX-XX-X-----------------|
B|-X-XX-X-XX-X-X-XX-X-XX-XX-X-----------------|
G|-5-55-5-55-5-5-55-5-55-55-5-----------------|
D|-5-55-5-55-5-5-55-5-55-55-5-----------------|
A|-3-33-3-33-3-3-33-3-33-33-3-----------------|
C|-0-00-0-00-0-0-00-0-00-00-0-----------------|

Verse:

e|---------------------------------------------------------------------------|
B|----0-----0-----0-------0-------0----0-----0------0------------------------|
G|-----0-----0-----0-------0-------0----0-----0------0-----------------------|
D|--5-----5------5------5-------5----5-----5------5--------------------------|
A|-3-3---3-3--5--------------5-3-3--3-3--5-----------------------------------|
C|--------------7-7--7-6-6----------------7-7--7-9-9-------------------------|
The pain in your life i cannot percieve.. crimes of humanity i see and believe..

Chorus:

e|-X-XX-X-XX-X-X-XX-X-XX-X-X--X-XX-X-XX-X-X-XX-X-XX-X-X-X-XX-X-XX-X-X-XX-X-XX-X-X-|
B|-X-XX-X-XX-X-X-XX-X-XX-X-X--0-00-0-00-0-0-00-0-00-0-0-0-00-0-00-0-0-00-0-00-0-0-|
G|-5-55-5-55-5-5-55-5-55-5-5--0-00-0-00-0-0-00-0-00-0-0-0-00-0-00-0-0-00-0-00-0-0-|
D|-5-55-5-55-5-5-55-5-55-5-5--5-55-5-55-5-5-55-5-55-5-5-5-55-5-55-5-5-55-5-55-5-5-|
A|-3-33-3-33-3-3-33-3-33-3-3--5-55-5-55-5-5-55-5-55-5-5-5-55-5-55-5-5-55-5-55-5-5-|
C|-0-00-0-00-0-0-00-0-00-0-0--7-77-7-77-7-7-77-7-77-7-7-6-66-6-66-6-6-66-6-66-6-6-|
   Contemplate.. your last breath.. as you see.. the face of death.. (so on)

Bridge 2 (Small):

e|-X-XX-X-XX-X-X-XX-X-XX-X-X--X-XX-X-XX-X-X-XX-X-XX-X-X-X-XX-X-XX-X-X-XX-X-XX-X-X-|
B|-X-XX-X-XX-X-X-XX-X-XX-X-X--0-00-0-00-0-0-00-0-00-0-0-0-00-0-00-0-0-00-0-00-0-0-|
G|-5-55-5-55-5-5-55-5-55-5-5--0-00-0-00-0-0-00-0-00-0-0-0-00-0-00-0-0-00-0-00-0-0-|
D|-5-55-5-55-5-5-55-5-55-5-5--5-55-5-55-5-5-55-5-55-5-5-5-55-5-55-5-5-55-5-55-5-5-|
A|-3-33-3-33-3-3-33-3-33-3-3--5-55-5-55-5-5-55-5-55-5-5-5-55-5-55-5-5-55-5-55-5-5-|
C|-0-00-0-00-0-0-00-0-00-0-0--7-77-7-77-7-7-77-7-77-7-7-6-66-6-66-6-6-66-6-66-6-6-|
  GoodBye..   Goodbye... Goodbye... Goodbye...

Main Bridge:

e|-XX-XX-X-XXX-XXX-XXX-XX-XX-X-XXX-XXX XXX-XX-XX-X-XXX-XXX-XXX-XX-XX-X-XXX-XXX-XXX| 
B|-XX-XX-X-XXX-XXX-XXX-XX-XX-X-XXX-XXX-XXX-00-00-0-000-000-000-00-00-0-000-000-000|
G|-55-55-5-555-555-555-55-55-5-555-555-555-00-00-0-000-000-000-00-00-0-000-000-000|   
D|-55-55-5-555-555-555-55-55-5-555-555-555-55-55-5-555-555-555-55-55-5-555-555-555|           
A|-33-33-3-333-333-333-33-33-3-333-333-333-55-55-5-555-555-555-55-55-5-555-555-555| 
C|-00-00-0-000-000-000-00-00-0-000-000-000-77-77-7-777-777-777-66-66-6-666-666-666|
  like the knife that cuts through me.. stabbing uncertanty.. (so on)

                      X         X
                      0         0
                      0         0
                      5         7
                      5         7
(last time Instead of 6 make it 9)

e|-X-XX-X-XX-X-X-XX-X-XX-X-X--X-XX-X-XX-X-X-XX-X-XX-X-X-X-XX-X-XX-X-X-XX-X-XX-X-X-|
B|-X-XX-X-XX-X-X-XX-X-XX-X-X--0-00-0-00-0-0-00-0-00-0-0-0-00-0-00-0-0-00-0-00-0-0-|
G|-5-55-5-55-5-5-55-5-55-5-5--0-00-0-00-0-0-00-0-00-0-0-0-00-0-00-0-0-00-0-00-0-0-|
D|-5-55-5-55-5-5-55-5-55-5-5--5-55-5-55-5-5-55-5-55-5-5-5-55-5-55-5-5-55-5-55-5-5-|
A|-3-33-3-33-3-3-33-3-33-3-3--5-55-5-55-5-5-55-5-55-5-5-5-55-5-55-5-5-55-5-55-5-5-|
C|-0-00-0-00-0-0-00-0-00-0-0--7-77-7-77-7-7-77-7-77-7-7-6-66-6-66-6-6-66-6-66-6-6-|
  My soul... My soul... My Soul... My Soul... (so on)

Chorus 2:

e|-XX-XX-X-XXX-XXX-XXX-XX-XX-X-XXX-XXX XXX-XX-XX-X-XXX-XXX-XXX-XX-XX-X-XXX-XXX-XXX|
B|-XX-XX-X-XXX-XXX-XXX-XX-XX-X-XXX-XXX-XXX-00-00-0-000-000-000-00-00-0-000-000-000|
G|-55-55-5-555-555-555-55-55-5-555-555-555-00-00-0-000-000-000-00-00-0-000-000-000|
D|-55-55-5-555-555-555-55-55-5-555-555-555-55-55-5-555-555-555-55-55-5-555-555-555|    
A|-33-33-3-333-333-333-33-33-3-333-333-333-55-55-5-555-555-555-55-55-5-555-555-555|
C|-00-00-0-000-000-000-00-00-0-000-000-000-77-77-7-777-777-777-66-66-6-666-666-666|
  Goodbye... contemplate your last breath...

Outro:

e|--------------------------------------------------------------------------------|
B|----0-----0-----0-------0-------0----0-----0------0-----------------------------|
G|-----0-----0-----0-------0-------0----0-----0------0----------------------------|
D|--5-----5------5------5-------5----5-----5------5-------------------------------|
A|-3-3---3-3--5--------------5-3-3--3-3--5----------------------------------------|
C|--------------7-7--7-6-6----------------7-7--7-9-9------------------------------|
  Goodbye... Goodbye... Goodbye... Goodbye... Final Exit...
_                                                                                _
_--------------------------------------------------------------------------------_

Lyrics:

"It's quite an experience 
to hold the hand of someone 
as they move 

"Final Exit... 
The practicalities 
of self-deliverance"

Final Exit

Your Life no longer 
has any value
Let them tell you what your 
own life is worth

There is no compassion 
as life fades away
This self deliverance the choice 
you have made

Contemplate your last breath
As you see the face of death
Contemplate your last breath
Breath, slowly breath

Final Exit

The pain in your life 
I cannot perceive
Crimes of humanity 
I see and believe

Contemplate your last breath
As you see the face of death
Contemplate your last breath
Breath, slowly breath
Goodbye, goodbye
Goodbye, goodbye

"It's quite an experience 
to hold the hand of someone 
as they move 

Like the knife 
that cuts through me
Stabbing uncertainty
It bleeds my life I know
Draining my heart and soul...

Like the knife 
that cuts through me
Stabbing uncertainty
It bleeds my life I know
Draining my heart and soul...
my soul, my soul, my soul...

(goodbye, goodbye...)

Contemplate your last breath
Breath, slowly breath

Goodbye, goodbye...



************************************

| /   slide up
| \   slide down
| h   hammer-on
| p   pull-off
| ~   vibrato
| +   harmonic
| x   Mute note
| b   Bend
| pb  Pre-bend
| br  Bend release
| pbr Pre-bend release
| brb Bend release bend

************************************
            
Tabs too difficult? Try these video lessons and learn fast.


comments powered by Disqus
↑ Back to top | Tablatures and chords are parodies/interpretations of the original songs. You may use it for private study, scholarship, research or language learning purposes only