» » »

Dog Day Sunrise Tabs (ver.1)

Artists:  A B C D E F G H I J K L M N O P Q R S T U V W X Y Z # 

Dog Day Sunrise Tabs (ver.1)

Fear Factory
Rating:
0/5 (0 votes)

Hard to play? Try these video lessons and learn fast.
                Intro/Keyboards (// = turn the volume on guitar from mute to max slowly.
You do not have to use this technique I just use it as a subsitute for keyboards.
e|-4//////////////////////////////////////~~~~~~~~~~~~~~~~~~~~--|
b|--------------------------------------------------------------|
G|--------------------------------------------------------------|
D|--------------------------------------------------------------|
A|--------------------------------------------------------------|
E|--------------------------------------------------------------|
B|--------------------------------------------------------------|

Intro/Chorus
e|--------------------------------------------------------------|
b|--------------------------------------------------------------|
G|--------------------------------------------------------------|
D|------4---------2---------------------------------------------|
A|--------------------------------------------------------------|
E|---2-----2---0-----0------------------------------------------|
B|--------------------------------------------------------------|

Verse
e|--------------------------------------------------------------|
b|--------------------------------------------------------------|
G|--------------------------------------------------------------|
D|--------------------------------------------------------------|
A|-------------4------------------------------------------------|
E|--------------------------------------------------------------|
B|---2--2-0-2---------------------------------------------------|

Ending (Another thing you don't have to play, I like to change up simple songs just to juice 'em up a lil bit)
e|--------------------------------------------------------------|
b|--------------------------------------------------------------|
G|--------------------------------------------------------------|
D|-----4--------------------------------------------------------|
A|----0---------------------------------------------------------|
E|---2----------------------------------------------------------|
B|--------------------------------------------------------------|

By  \m/ason
            
Hard to play? Try these video lessons and learn fast. | Correct




comments powered by Disqus
↑ Back to top | Tablatures and chords are parodies/interpretations of the original songs. You may use it for private study, scholarship, research or language learning purposes only