» » »

Fear Factory, Disassemble Tabs (ver.1)

Artists:  A B C D E F G H I J K L M N O P Q R S T U V W X Y Z # 

Disassemble Tabs (ver.1)

Fear Factory Tabs
Rating:
0/5 (0 votes)
Disassemble lessons Tabs too difficult? Try these video lessons and learn fast
                Fear Factory
Disassemble + Religion is Flawed Because Man is Flawed
The Industrialist (2012)
Dino Cazares, Burton C. Bell, Rhys Fulber
Tuning: F#/Gb BEADGBE (8-String)
6/3/2012
 

*I don't usually have "the ear for music" but this sounds correct imo. 
Forgive if there's any mistakes. 
And if you by chance use my tab as a basis for your own all I ask is that you 
give credit when credit is due. Thanks!*


Intro:

Gtr 1 & 2: (Distorted with effects and panning)

E-----------------------------|
B-----------------------------|
G-----------------------------|
D-----------------------------|
A-----------------------------|
E----------4------3-----------|
B-----------------------------|
F#--222222---2222---2---------|


E------------------------------------------|
B------------------------------------------|
G------------------------------------------|
D------------------------------------------|
A------------------------------------------|
E-----------4------3-----------------------|
B------------------------------------------|
F#--222222----2222---222222---5-6-5-7-5----|

OR for the ending fill

B-0-1-0-2-0--------



Verse:

Gtr 1 & 2: (Distorted)


E-------------------------------|
B-------------------------------|
G-------------------------------|
D-------------------------------|
A-------------------------------|
E----------4------3-------------|
B-------------------------------|
F#--222222---2222---222-3b------|





Pre-Chorus: (goddamn degradation etc.)

Gtr 1 & 2: (Distorted)

E-------------------------------------|
B-------------------------------------|
G-------------------------------------|
D---------------------------7--6--9---|
A---------------------------7--6--9---|
E-----------4------3--------5--4--7---|
B-------------------------------------|
F#--222222----2222---222222-----------|


E-----------------|
B-----------------|
G-----------------|
D----7---6---9----|
A----7---6---9----|
E----5---4---7----|
B-----------------|
F#----------------|

^ X4




Chorus: (Falling down! Break it down!!)


Gtr 1 & 2: (Distorted)

E--------------------------|
B--------------------------|
G--------------------------|
D--------------------------|
A--------------------------|
E--------------------------|
B--------------------------|
F#--1--0--5--4--111111-----|

E--------------------------|
B--------------------------|
G--------------------------|
D--------------------------|
A--------------------------|
E--------------------------|
B--------------------------|
F#--1--0--3--5--111111-----|


E--------------------------|
B--------------------------|
G--------------------------|
D--------------------------|
A--------------------------|
E--------------------------|
B--------------------------|
F#--1--0--5--4--111111-----|


This part could be added as a layered guitar if you wanted the octaves to be higher.

E----------------------------|
B----------------------------|
G----------------------------|
D---5---4---9---8------------|
A---5---4---9---8------------|
E---3---2---7---6--222222----|
B----------------------------|
F#---------------------------|


E----------------------------|
B----------------------------|
G----------------------------|
D---5---4---9---7------------|
A---5---4---9---7------------|
E---3---2---7---5--222222----|
B----------------------------|
F#---------------------------|


OR

E-----------------------------|
B-----------------------------|
G-----------------------------|
D------------9----------------|
A---10---9---9--13------------|
E---10---9---7--13------------|
B---8----7------11-777777-----|
F#----------------------------|



E----------------------------|
B----------------------------|
G----------------------------|
D------------9---------------|
A---10---9---9--12-----------|
E---10---9---7--12-----------|
B---8----7------10-777777----|
F#---------------------------|



E---------------------------------------|
B---------------------------------------|
G---------------------------------------|
D----------4---7777-------4-------------|
A-------5--------------5-----5----------|
E---7---------------7----------7--5-----|
B---------------------------------------|
F#--------------------------------------|


E-----------------------------------------------|
B-----------------------------------------------|
G-----------------------------------------------|
D----------4---7--4-------------4---------------|
A-------5------------5-------5-----5------------|
E---7--------------------7------------7--5------|
B-----------------------------------------------|
F#----------------------------------------------|



Bridge:

Gtr 1 & 2: (Distorted)


E-----------------------------|
B-----------------------------|
G-----------------------------|
D-----------------------------|
A--------5------4-------3-----|
E------5------4-------3-------|
B----3-------2-------1--------|
F#----------------------------|


E-----------------------------------|
B-----------------------------------|
G-----------------------------------|
D-----------------------------------|
A-----------------------------------|
E-----------------------------------|
B-----------------------------------|
F#---2222-2b-2222-3b-2222-3-5-1-----|





(I am your fate etc.)

E----------------|
B----------------|
G----------------|
D----------------|
A----------------|
E----------------|
B----------------|
F#---333333------|





Outro:


E------------------------------|
B------------------------------|
G------------------------------|
D------------------------------|
A-------5-----4-----3-----2----|
E-----5-----4-----3-----2------|
B---3-----2-----1-----0--------|
F#-----------------------------|

E--------------------------------------------------------|
B--------------------------------------------------------|
G--------------------------------------------------------|
D-------7------9------5----------------------------------|
A-----7------9------5---------5-------4------3------2----|
E---5------7------3---------5-------4------3------2------|
B--------------------------3-------2------1------0-------|
F#-------------------------------------------------------|


E-----------|
B-----------|
G-----------|
D-----------|
A---2~------|
E---2~------|
B---0~------|
F#----------|


The last B5 (022) technically begins on the next song Religion is Flawed Because Man is Flawed,
but it bleeds directly into it so that's why I put it here.



Religion is Flawed Because Man is Flawed:


Gtr 1: (Distorted)

E------------|
B------------|
G------------|
D------------|
A----2~------|
E----2~------|
B----0~------|
F#-----------|



Gtr 2: (Melodic picking)

E-----------------------------------|
B-----------------------------------|
G-----------------------------------|
D----------0---------------0--------|
A------------0----------------0-----|
E--------0-----0--------0-------0---|
B---0~-------------3~---------------|
F#----------------------------------|


E-----------------------------------|
B-----------------------------------|
G-----------------------------------|
D----------0---------------0--------|
A------------0----------------0-----|
E--------0-----0--------0-------0---|
B---7~-------------8~---------------|
F#----------------------------------|


E-----------------------------------|
B-----------------------------------|
G-----------------------------------|
D----------0---------------0--------|
A------------0----------------0-----|
E--------0-----0--------0-------0---|
B---0~-------------3~---------------|
F#----------------------------------|

E-----------------------------------|
B-----------------------------------|
G-----------------------------------|
D----------0---------------0--------|
A------------0----------------0-----|
E--------0-----0--------0-------0---|
B---2~-------------5~---------------|
F#----------------------------------|


The picking part is hard to pick out due to everything in the song, so it might be wrong
but the root notes do sound correct.
            

comments powered by Disqus
↑ Back to top | Fear Factory Tabs for Disassemble. Lyrics for acoustic guitar and electric guitar. Tablatures and chords are parodies/interpretations of the original songs. You may use it for private study, scholarship, research or language learning purposes only