>
 >
Digimortal

Digimortal Guitar Tabs

Fear Factory - Digimortal chords, tabs, tablatures, lyrics

Guitar lessons | Add/correct | Request | Top 50 tabs Artists:  A B C D E F G H I J K L M N O P Q R S T U V W X Y Z 0-9

Digimortal Guitar Tabs – Fear Factory

CD, Sheet music, Poster

Do you like Digimortal? Share with your friends now
Bass TabsTabs
Fear Factory

Riff A:
D|----------------------------------------------------|
A|----------------------------------------------------|
F|----------------------------------------------------|
C|----------------------------------------------------|
G|----------------------------------------------------|
D|----------------------------------------------------|
A|-0-1-0------0--0------0--1--0------4-4-4-4-4-4-4-4--|
PM                                   \_____________/ 


Riff B:
D|----------------------------------------------------|
A|----------------------------------------------------|
F|----------------------------------------------------|
C|----------------------------------------------------|
G|----------------------------------------------------|
D|-2-3-2------2--2------2--3--2-----------------------|
A|-0-1-0------0--0------0--1--0------4-4-4-4-4-4-4-4--|
PM                                   \_____________/


Fill 1:
D|---------------------------------------|
A|---------------------------------------|
F|---------------------------------------| 
C|---------------------------------------|
G|---------------------------------------|
D|---------------------------------------|
A|-3-3---3-3-3---3-3-3---3--4-4-4-4-4-4--|
PM \__________________________________/ 


Riff C:
D|-------------|
A|-------------|
F|-------------|
C|-------------|
G|-------------|
D|-6-6-6-6-5-5-|
A|-4-4-4-4-3-3-|
PM \_________/


Riff D:
D|----------|
A|----------|
F|----------|
C|----------|
G|----------|
D|--5--5-5--|
A|--3--3-3--|
PM  \____/


Fill 2:
D|-----------|
A|-----------|
F|-----------|
C|-----------|
G|-----------|
D|--6-6-6-6--|
A|--4-4-4-4--|
PM  \_____/

 
Fill 3:
D|------------|
A|------------|
F|------------| PICK SCRATCHES (probably)
C|-X~~~-X~~~--|
G|-X~~~-X~~~--|
D|------------|
A|------------|


Chorus:
D|------------|------------|------------|--------------|
A|------------|------------|------------|--------------|
F|------------|------------|------------|--------------|
C|--4--4--4---|--7--7--7---|--6--6--6---|--------------|
G|--2--2--2---|--7--7--7---|--7--7--7---|--7--7--7--5--|
D|--2--2--2---|--5--5--5---|--4--4--4---|--7--7--7--5--|
A|--0--0--0---|------------|------------|--5--5--5--3--|


D|------------|---------5--|---------4--|--------------|
A|------------|---------5--|---------5--|--------------|
F|---------4--|------------|------------|--------------|
C|--4--4---4--|--7--7------|--6--6------|--------------|
G|--2--2------|--7--7------|--7--7------|--7--7--7--5--|
D|--2--2------|--5--5------|--4--4------|--7--7--7--5--|
A|--0--0------|------------|------------|--5--5--5--3--|


D|------------|------------|------------|--------------|
A|------------|------------|------------|--------------|
F|------------|------------|------------|--------------|
C|--4--4--4---|--7--7--7---|--6--6--6---|--------------|
G|--2--2--2---|--7--7--7---|--7--7--7---|--7--7--7--5--|
D|--2--2--2---|--5--5--5---|--4--4--4---|--7--7--7--5--|
A|--0--0--0---|------------|------------|--5--5--5--3--|


D|------------|---------5--|---------4--|--------------|
A|---------4--|---------5--|---------5--|--------------|
F|---------4--|------------|------------|--------------|
C|--4--4------|--7--7------|--6--6------|--------------|
G|--2--2------|--7--7------|--7--7------|-7-7-5--4--3--|
D|--2--2------|--5--5------|--4--4------|-7-7-5--4--3--|
A|--0--0------|------------|------------|-5-5-3--2--1--|


Riff E:
D|----------------|-----------------|
A|----------------|-----------------|
F|----------------|-----------------|
C|----------------|-----------------|
G|----------------|-----------------|
D|----------------|-----------------|
A|--0-1-0---0--0--|--0-1-0--4-1-0-1-|
PM  \__________/    \_____________/


Fill 4:
D|----------------------|
A|----------------------|
F|----------------------|
C|----------------------|
G|--2--2--5--4--3--2--2-|
D|--2--2--5--4--3--2--2-|
A|--0--0--3--2--1--0--0-|


Riff Order:
RIFF A X4
RIFF B X4
FILL 1
RIFF C X3
RIFF D X7
RIFF C
RIFF D X7
FILL 2
FILL 3
CHORUS
RIFF E X2
RIFF C X2
RIFF D X7
RIFF C X7
FILL 2
FILL 3
CHORUS
RIFF B X4
RIFF B X4 (palm muted)
CHORUS X2 (last time with a slight rhythmic variation)
FILL 4





Comments


Popular Fear Factory tabs & chords
Byte Block Bass Tabs
Dog Day Sunrise 4 Bass Tabs
Flashpoint 3 Bass Tabs
Machine Debaser Bass Tabs
Scapegoat Bass Tabs
540,000 Degrees Fahrenheit 1 Tabs
Bonescraper Tabs
Cyberwaste 1 Tabs
Escape Confusion Tabs
Snitches Are A Dying Breed Tabs


Song lyrics



↑ Back to top | Tablatures and chords are parodies/interpretations of the original songs. You may use it for private study, scholarship, research or language learning purposes only
© 2014 AZChords.com Contact us | Privacy policy | DMCA | Add/correct tabs | Request tabs | Top 50 tabs