» » »

Fear Factory, Decent Tabs (ver.4)

Artists:  A B C D E F G H I J K L M N O P Q R S T U V W X Y Z # 

Decent Tabs (ver.4)

Fear Factory Tabs
 Rating:
4/5 (4 votes)
Decent lessons Tabs too difficult? Try these video lessons and learn fast
                FEAR FACTORY - "Descent"
Tuning: A,E,A,D,F#,B


 - A -

|---2-----2-----2-------2---------2-----2--------------|
|-----3-----3-----3---3---3---------3-----3------------|
|------------------------------------------------------|
|------------------------------------------------------|
|-------------------0----------------------------------|
|-2-----4-----5-------------(0)-2-----4-----0----------|
                             
|---2-----2-----2-------2---------2-----2-------------------------|
|-----3-----3-----3---3---3---------3-----3-----------------------|
|-----------------------------------------------------------------|
|-----------------------------------------------------------------|
|-------------------0---------------------------0--0-0--0-2--2-2--|
|-2-----4-----5-------------(0)-2-----4-----(0)-0--0-0--0-2--2-2--|


 - B -

|---2-----2-----2-------2---------2-----2-----2-------2----|
|-----3-----3-----3---3---3---------3-----3-----3---3---3--|
|----------------------------------------------------------|
|----------------------------------------------------------|
|-------------------0--------------------------------------|
|-2-----4-----5-------------(0)-2-----4-----0-----2--------|


 - C -  Verse 1

|-------------|
|-------------|
|-------------|
|-2~----------|     (sustain and fade)
|-2~----------|
|-2~----------|


 - D - 

|------------------------------|
|------------------------------|
|------------------------------|
|-2---4-4-4-4---4-5---5/7-7-7--|
|-2---4-4-4-4---4-5---5/7-7-7--|
|-2---4-4-4-4---4-5---5/7-7-7--|

|---------------------------------|
|---------------------------------|
|---------------------------------|
|---------4-4-4-4------2---2-2-2--|
|---------4-4-4-4------0---2-2-2--|
|-(0)-2---4-4-4-4---0--0---2-2-2--|

|------------------------------|
|------------------------------|
|------------------------------|
|-2---4-4-4-4---4-5---5/7-7-7--|
|-2---4-4-4-4---4-5---5/7-7-7--|
|-2---4-4-4-4---4-5---5/7-7-7--|

|---------------------------------------|
|---------------------------------------|
|---------------------------------------|
|-----2---4-4-4-4-----2--2-2--2-2--2-2--|
|-----2---4-4-4-4-----2--2-2--2-0--0-0--|
|-(0)-2---4-4-4-4---0-2--2-2--2-0--0-0--|


 - E -  Verse 2

|--------------|
|--------------|
|--------------|
|--2-----------|     (play and mute) 
|--2-----------|
|--2-----------|
   pm


 - F -

|-------------------------------------------------|
|-------------------------------------------------|
|-------------------------------------------------|
|-2--2-2/4-(4)-4-4-4---(4)-5--5--(5)/7-(7)-7-7-7--| (play smoothly)
|-2--2-2/4-(4)-4-4-4---(4)-5--5--(5)/7-(7)-7-7-7--|
|-2--2-2/4-(4)-4-4-4---(4)-5--5--(5)/7-(7)-7-7-7--|

|----------------------------------------|
|----------------------------------------|
|----------------------------------------|
|-2-----(2)-(2)-----7-7------2-2------2--|
|-2------0---0------5-5------2-2------2--|
|-2------0---0------7-7------2-2------2--|


 - G -  "I am nothing, I feel nothing" 

|---------------------------------------------------|
|---------------------------------------------------|
|---------------------------------------------------|
|-2---2-----(2)---(2)-----7---7------2-2-----(0)-2--|
|-2---2------0-----0------5---5------2-2-----(0)-2--|
|-2---2------0-----0------7---7------2-2-----(0)-2--|


 - H -  Final chorus 

|---2-----2-----2------2-2-3p2----2-----2----2-----2-2-3p2--|
|-----3-----3-----3-----------------3-----3----3------------|
|-----------------------------------------------------------|
|-----------------------------------------------------------|
|-------------------0---------------------------------------|
|-2-----4-----5-----------------2-----4-----0----2----------|

|---2-----2-----2-----2-2-3p2----2-----2-----2-------2------|
|-----3-----3-----3----------------3-----3-----3---3---3----|
|-----------------------------------------------------------|
|-----------------------------------------------------------|
|-------------------0---------------------------------------|
|-2-----4-----5----------------2-----4-----0-----2-------0--| (and sustain)



KEY

p = pull-off
pm = palm mute


SONG STRUCTURE

A x1     Intro
B x2     
C x1     Verse 1
D x1
B x2     Chorus
E x1     Verse 2
D x1
B x2     Chorus
F x2
G x4
A x1 
B x2     Chorus
H x1     Altered chorus
            
Submit corrections

comments powered by Disqus
↑ Back to top | Fear Factory Tabs for Decent. Lyrics for acoustic guitar and electric guitar. Tablatures and chords are parodies/interpretations of the original songs. You may use it for private study, scholarship, research or language learning purposes only