» » »

Fear Factory, Crisis Tabs (ver.1)

Artists:  A B C D E F G H I J K L M N O P Q R S T U V W X Y Z # 

Crisis Tabs (ver.1)

Fear Factory Tabs
Rating:
5/5 (2 votes)
Hard to play? Try these video lessons and learn fast.
                Band: Fear Factory


Tuning: B E A D F# B

. = Palm Mute
* = Harmonic
/ = Slide
~ = Let Ring
vs(?) = Volume Swell (Notes Swelling)
b = Bend
e = Echo Effect
d = Delay Effect


Intro
|----|
|-5*-|
|-5*-|
|----|
|----|
|----|


Verse                        x2
|------------------------------|
|------------------------------|
|---------------------------5*-|
|-2-2-2--2-2-2--2-2-2--2-2--5*-|
|-2-2-2--2-2-2--2-2-2--2-2-----|
|-0-0-0--0-0-0--0-0-0--0-0-----|


|---------------------------------------------------|
|---------------------------------------------------|
|------------------------------------------------5*-|
|-2-2-2---------2-2-2---------2-2-2---------2-2--5*-|
|-2-2-2----2-2--2-2-2----2-2--2-2-2----2-2--2-2-----|
|-0-0-0-00-0-0--0-0-0-00-0-0--0-0-0-00-0-0--0-0-----|
        .. . .        .. . .        .. . .

|---------------------------------------------------|
|------------------------------------------------5*-|
|------------------------------------------------5*-|
|-2-2-2---------2-2-2---------2-2-2---------2-2-----|
|-2-2-2----2-2--2-2-2----2-2--2-2-2----2-2--2-2-----|
|-0-0-0-00-0-0--0-0-0-00-0-0--0-0-0-00-0-0--0-0-----|
        .. . .        .. . .        .. . .

Fill
|---|
|---|
|---|
|-2-|
|-2-|
|-0-|


Pre-Chorus
|---------------------------------|
|---------------------------------|
|---------------------------------|
|---------------------------------|
|-4-5-4-6-3-3-3-3-4-5-4-6-2-2-2-2-|
|-2-3-2-4-1-1-1-1-2-3-2-4-0-0-0-0-|
  . . . . . . . . . . . . . . . .

Chorus                                                      x4
|-------------------------------------------------------------|
|-------------------------------------------------------------|
|-------------------------------------------------------------|
|-------------------------------------------------------------|
|-4/5-4/6-3--4/5-4/5-4/6-2--2--4/5-4/6-3--4/5-4/5-4/6-2-2-2-2-|
|-2/3-2/4-1--2/3-2/3-2/4-0--0--2/3-2/4-1--2/3-2/3-2/4-0-0-0-0-|
                                                      . . . .

Verse                        x2
|------------------------------|
|------------------------------|
|---------------------------5*-|
|-2-2-2--2-2-2--2-2-2--2-2--5*-|
|-2-2-2--2-2-2--2-2-2--2-2-----|
|-0-0-0--0-0-0--0-0-0--0-0-----|


|---------------------------------------------------|
|---------------------------------------------------|
|------------------------------------------------5*-|
|-2-2-2---------2-2-2---------2-2-2---------2-2--5*-|
|-2-2-2----2-2--2-2-2----2-2--2-2-2----2-2--2-2-----|
|-0-0-0-00-0-0--0-0-0-00-0-0--0-0-0-00-0-0--0-0-----|
        .. . .        .. . .        .. . .

|---------------------------------------------------|
|------------------------------------------------5*-|
|------------------------------------------------5*-|
|-2-2-2---------2-2-2---------2-2-2---------2-2-----|
|-2-2-2----2-2--2-2-2----2-2--2-2-2----2-2--2-2-----|
|-0-0-0-00-0-0--0-0-0-00-0-0--0-0-0-00-0-0--0-0-----|
        .. . .        .. . .        .. . .

Pre-Chorus                      x2
|---------------------------------|
|---------------------------------|
|---------------------------------|
|---------------------------------|
|-4-5-4-6-3-3-3-3-4-5-4-6-2-2-2-2-|
|-2-3-2-4-1-1-1-1-2-3-2-4-0-0-0-0-|
  . . . . . . . . . . . . . . . .

Chorus                                                      x4
|-------------------------------------------------------------|
|-------------------------------------------------------------|
|-------------------------------------------------------------|
|-------------------------------------------------------------|
|-4/5-4/6-3--4/5-4/5-4/6-2--2--4/5-4/6-3--4/5-4/5-4/6-2-2-2-2-|
|-2/3-2/4-1--2/3-2/3-2/4-0--0--2/3-2/4-1--2/3-2/3-2/4-0-0-0-0-|
                                                      . . . .

Bridge                        x3                 x1
|-------------------------------|------------------|
|-------------------------------|------------------|
|-------------------------------|------------------|
|-------8-------7---------------|-------8-------7~-|
|-7-----6---8---5-----7777-7--7-|-7-----6---8---5~-|
|-5---------6---------5555-5--5-|-5---------6------|
                      .... .  .

Pre-Chorus                      x2
|---------------------------------|
|---------------------------------|
|---------------------------------|
|---------------------------------|
|-4-5-4-6-3-3-3-3-4-5-4-6-2-2-2-2-|
|-2-3-2-4-1-1-1-1-2-3-2-4-0-0-0-0-|
  . . . . . . . . . . . . . . . .

Chorus                                                      x4
|-------------------------------------------------------------|
|-------------------------------------------------------------|
|-------------------------------------------------------------|
|-------------------------------------------------------------|
|-4/5-4/6-3--4/5-4/5-4/6-2--2--4/5-4/6-3--4/5-4/5-4/6-2-2-2-2-|
|-2/3-2/4-1--2/3-2/3-2/4-0--0--2/3-2/4-1--2/3-2/3-2/4-0-0-0-0-|
                                                      . . . .

Outro (Guitar 1)                                            x4
|-------------------------------------------------------------|
|-------------------------------------------------------------|
|-------------------------------------------------------------|
|-------------------------------------------------------------|
|-4/5-4/6-3--4/5-4/5-4/6-2--2--4/5-4/6-3--4/5-4/5-4/6-2-2-2-2-|
|-2/3-2/4-1--2/3-2/3-2/4-0--0--2/3-2/4-1--2/3-2/3-2/4-0-0-0-0-|
                                                      . . . .

Outro (Guitar 2)            x4       x1
|-----------------------------|--------|
|-vs(17-17-17-17-17-17-17-17)-|-17b18d-|
|-----------------------------|--------|
|-----------------------------|--------|
|-----------------------------|--------|
|-----------------------------|--------|
     e  e  e  e  e  e  e  e     e  e
            

comments powered by Disqus
↑ Back to top | Fear Factory Tabs for Crisis. Lyrics for acoustic guitar and electric guitar. Tablatures and chords are parodies/interpretations of the original songs. You may use it for private study, scholarship, research or language learning purposes only