» » »

Fear Factory, Concreto Tabs (ver.1)

Artists:  A B C D E F G H I J K L M N O P Q R S T U V W X Y Z # 

Concreto Tabs (ver.1)

Fear Factory Tabs
Rating:
3/5 (3 votes)
Concreto lessons Tabs too difficult? Try these video lessons and learn fast
                Concreto by Fear Factory

This is Concreto which can be found on the Dog Day Sunrise single.

Dino uses a 7 string for most of his songs, what I do is buy a thicker 
string (about a 56 guage) tune it to B and then E, A and so on. Only
problem is that you won't have a high E string.

Here it goes:

(Note. You must be able tremolo pick whilst palm muting or you won't be
able to play this properly, remember, practice makes perfect!)

Timing is not exact, just listen to the song, this is just a guide


   A:----------------------------------4~let ring for a while
   E:----------------------------------4~
   B:1111222211114444333331111222211111
pm:  ..................................

Repeat this as many times as needed but instead of the 4's on E and A
Dino goes down to the 3rd fret then 2nd and then 1st fret.

Now its just

   A:--------------------------------------------------------4~ (2nd time 
   E:3-3-3-3-4-4-4-4-3-3-3-3-6-6-5-5-3-3-3-3-4-4-4-4-3-3-3-3-4~  3rd fret)
   B:1-1-1-1-2-2-2-2-1-1-1-1-4-4-3-3-1-1-1-1-2-2-2-2-1-1-1-1--
pm:.........................................................

Those are the main two parts and now it go to this

   A:--------------------------------------------------------
   E:2-2-2------2-2-2------2-2-2------2-2-2-2-2-2-2-2-2------
   B:0-0-0------0-0-0------0-0-0------0-0-0-0-0-0-0-0-0------
pm:  ..................................................


   A:-------------------------------------------------------------------
   E:2-2-2---4-5-4-5---2-2-2---4-5-4-5---2-2-2---4-5-4-5---2-2-2---2-2-2
   B:0-0-0---2-3-2-3---0-0-0---2-3-2-3---0-0-0---2-3-2-3---0-0-0---0-0-0
pm:.....................................................................


   A:--------4~----------3~----------2~--------------
   E:2-2-2---4~--2-2-2---3~--2-2-2---2~--2-2-2-5--4--
   B:0-0-0-------0-0-0-------0-0-0-------0-0-0-3--2--
pm:.......       .....       .....       .......  .

The next part is just the same except instead of slow heavy strokes on the 
B it is very fast strokes, you have to get in about 4 of them.

Well you get the idea, as you can see it is an easy song once you get the hang of it.
            

comments powered by Disqus
↑ Back to top | Fear Factory Tabs for Concreto. Lyrics for acoustic guitar and electric guitar. Tablatures and chords are parodies/interpretations of the original songs. You may use it for private study, scholarship, research or language learning purposes only