» » »

Fear Factory, Christploitation Tabs (ver.1)

Artists:  A B C D E F G H I J K L M N O P Q R S T U V W X Y Z # 

Christploitation Tabs (ver.1)

Fear Factory Tabs
 Rating:
4.3/5 (6 votes)
Christploitation lessons Tabs too difficult? Try these video lessons and learn fast
                Composers: Burton C. Bell, Dino Cazares, Gene Hoglan,
Tuning A D G C F A D (7 String)

Intro 
||----------------|---------|----------|----------|--------------|
||----------------|---------|----------|----------|--------------|
||----------------|---------|----------|----------|--------------|
||----------------|---------|----------|----------|--------------|
||---10-9-12-9-10-|---------|----------|----------|------12-9-10-|
||-8--8-7-10-7--8-|-2-------|-6--------|-10-------|-8----10-7--8-|
||-6--------------|-0-------|-4--------|--8-------|-6------------|

||---------|----------|----------|----------------|
||---------|----------|----------|----------------|
||---------|----------|----------|----------------|
||---------|----------|----------|----------------|
||---------|----------|----------|---10-9-12-9-10-|
||-2-------|-6--------|-10-------|-8--8-7-10-7--8-|
||-0-------|-4--------|--8-------|-6--------------|

Main Riff
||---------------------|----------------------|-----------------------|
||---------------------|----------------------|-----------------------|
||---------------------|----------------------|-----------------------|
||---------------------|----------------------|-----------------------|
||---------------------|-------------6-6-6-5~-|-----------------------|
||-----7-7-----8-8-5-7-|-----7-7--------------|-----7-7-----10-10-7-8-|
||-0-0-----0-0---------|-4-4-----4-4----------|-8-8-----8-8-----------|
pm - -     - -           - -     - -            - -     - -

||-----------------------------------|
||-----------------------------------|
||-----------------------------------|
||-----------------------------------|
||-----------------------------------|
||---------8-8-7-7-10-10-7-7-7-7-8-8-|
||-6-6-6-6---------------------------|
pm - - - - - - - -  -  - - - - - - -

||---------------------|----------------------|-----------------------|
||---------------------|----------------------|-----------------------|
||---------------------|----------------------|-----------------------|
||---------------------|----------------------|-----------------------|
||---------------------|-------------6-6-6-5~-|-----------------------|
||-----7-7-----8-8-5-7-|-----7-7--------------|-----7-7-----10-10-7-8-|
||-0-0-----0-0---------|-4-4-----4-4----------|-8-8-----8-8-----------|
pm - -     - -           - -     - -            - -     - -

||-----------------------------------|-----------------------------------|
||-----------------------------------|-----------------------------------|
||-----------------------------------|-----------------------------------|
||-----------------------------------|-----------------------------------|
||-----------------------------------|-----------------------------------|
||---------8-8-7-7-10-10-7-7-7-7-8-8-|---------8-8-7-7-10-10-7-7-7-7-8-8-|
||-6-6-6-6---------------------------|-6-6-6-6---------------------------|
pm - - - - - - - -  -  - - - - - - -   - - - - - - - -  -  - - - - - - -

Verse
||---------------------------------------------|
||---------------------------------------------|
||---------------------------------------------|
||---------------------------------------------|
||---------------------------------------------|
||-3-3-3-3-3-3-3---3-3-3-3-3---6-6-6-6-6-6-6-6-|
||---------------------------------------------|
pm - - - - - - -   - - - - -   - - - - - - - - 

||---------------------------------------------|
||---------------------------------------------|
||---------------------------------------------|
||---------------------------------------------|
||-----------------------------4-4-4-4-4-4-4-4-|
||-3-3-3-3-3-3-3---3-3-3-3-3-------------------|
||---------------------------------------------|
pm - - - - - - -   - - - - -   - - - - - - - - 

||---------------------------------------------|
||---------------------------------------------|
||---------------------------------------------|
||---------------------------------------------|
||---------------------------------------------|
||-3-3-3-3-3-3-3---3-3-3-3-3---6-6-6-6-6-6-6-6-|
||---------------------------------------------|
pm - - - - - - -   - - - - -   - - - - - - - - 

||---------------------------------|
||---------------------------------|
||---------------------------------|
||---------------------------------|
||-------------------------------4-|
||-3-3-3-3-3-3-3---3-3-3-3-3-----2-|
||-----------------------------0---|
pm - - - - - - -   - - - - -   - 

||---------------------------------------------|
||---------------------------------------------|
||---------------------------------------------|
||---------------------------------------------|
||---------------------------------------------|
||-3-3-3-3-3-3-3---3-3-3-3-3---6-6-6-6-6-6-6-6-|
||---------------------------------------------|
pm - - - - - - -   - - - - -   - - - - - - - - 

||---------------------------------------------|
||---------------------------------------------|
||---------------------------------------------|
||---------------------------------------------|
||-----------------------------4-4-4-4-4-4-4-4-|
||-3-3-3-3-3-3-3---3-3-3-3-3-------------------|
||---------------------------------------------|
pm - - - - - - -   - - - - -   - - - - - - - - 

||---------------------------------------------|
||---------------------------------------------|
||---------------------------------------------|
||---------------------------------------------|
||---------------------------------------------|
||-3-3-3-3-3-3-3---3-3-3-3-3---6-6-6-6-6-6-6-6-|
||---------------------------------------------|
pm - - - - - - -   - - - - -   - - - - - - - - 

||---------------------------------|
||---------------------------------|
||---------------------------------|
||---------------------------------|
||-------------------------------4-|
||-3-3-3-3-3-3-3---3-3-3-3-3-----2-|
||-----------------------------0---|
pm - - - - - - -   - - - - -   - 

Mid Verse
||---------|----------|----------|----------|
||---------|----------|----------|----------|
||---------|----------|----------|----------|
||---------|----------|----------|----------|
||---------|----------|----------|----------|
||-2-------|-6--------|-10-------|-7------9-|
||-0-------|-4--------|--8-------|-5------7-|

Verse
||---------------------------------------------|
||---------------------------------------------|
||---------------------------------------------|
||---------------------------------------------|
||---------------------------------------------|
||-3-3-3-3-3-3-3---3-3-3-3-3---6-6-6-6-6-6-6-6-|
||---------------------------------------------|
pm - - - - - - -   - - - - -   - - - - - - - - 

||---------------------------------------------|
||---------------------------------------------|
||---------------------------------------------|
||---------------------------------------------|
||-----------------------------4-4-4-4-4-4-4-4-|
||-3-3-3-3-3-3-3---3-3-3-3-3-------------------|
||---------------------------------------------|
pm - - - - - - -   - - - - -   - - - - - - - - 

||---------------------------------------------|
||---------------------------------------------|
||---------------------------------------------|
||---------------------------------------------|
||---------------------------------------------|
||-3-3-3-3-3-3-3---3-3-3-3-3---6-6-6-6-6-6-6-6-|
||---------------------------------------------|
pm - - - - - - -   - - - - -   - - - - - - - - 

||---------------------------------|
||---------------------------------|
||---------------------------------|
||---------------------------------|
||-------------------------------4-|
||-3-3-3-3-3-3-3---3-3-3-3-3-----2-|
||-----------------------------0---|
pm - - - - - - -   - - - - -   - 

||---------------------------------------------|
||---------------------------------------------|
||---------------------------------------------|
||---------------------------------------------|
||---------------------------------------------|
||-3-3-3-3-3-3-3---3-3-3-3-3---6-6-6-6-6-6-6-6-|
||---------------------------------------------|
pm - - - - - - -   - - - - -   - - - - - - - - 

||---------------------------------------------|
||---------------------------------------------|
||---------------------------------------------|
||---------------------------------------------|
||-----------------------------4-4-4-4-4-4-4-4-|
||-3-3-3-3-3-3-3---3-3-3-3-3-------------------|
||---------------------------------------------|
pm - - - - - - -   - - - - -   - - - - - - - - 

||---------------------------------------------|
||---------------------------------------------|
||---------------------------------------------|
||---------------------------------------------|
||---------------------------------------------|
||-3-3-3-3-3-3-3---3-3-3-3-3---6-6-6-6-6-6-6-6-|
||---------------------------------------------|
pm - - - - - - -   - - - - -   - - - - - - - - 

||-----------------------------------------|
||-----------------------------------------|
||-----------------------------------------|
||-----------------------------------------|
||-------------------------------4---4---4-|
||-3-3-3-3-3-3-3---3-3-3-3-3-----2---2---2-|
||-----------------------------0---0---0---|
pm - - - - - - -   - - - - -   -   -   -

Main Riff
||---------------------|----------------------|-----------------------|
||---------------------|----------------------|-----------------------|
||---------------------|----------------------|-----------------------|
||---------------------|----------------------|-----------------------|
||---------------------|-------------6-6-6-5~-|-----------------------|
||-----7-7-----8-8-5-7-|-----7-7--------------|-----7-7-----10-10-7-8-|
||-0-0-----0-0---------|-4-4-----4-4----------|-8-8-----8-8-----------|
pm - -     - -           - -     - -            - -     - -

||-----------------------------------|
||-----------------------------------|
||-----------------------------------|
||-----------------------------------|
||-----------------------------------|
||---------8-8-7-7-10-10-7-7-7-7-8-8-|
||-6-6-6-6---------------------------|
pm - - - - - - - -  -  - - - - - - -

||---------------------|----------------------|-----------------------|
||---------------------|----------------------|-----------------------|
||---------------------|----------------------|-----------------------|
||---------------------|----------------------|-----------------------|
||---------------------|-------------6-6-6-5~-|-----------------------|
||-----7-7-----8-8-5-7-|-----7-7--------------|-----7-7-----10-10-7-8-|
||-0-0-----0-0---------|-4-4-----4-4----------|-8-8-----8-8-----------|
pm - -     - -           - -     - -            - -     - -

||-----------------------------------|-----------------------------------|
||-----------------------------------|-----------------------------------|
||-----------------------------------|-----------------------------------|
||-----------------------------------|-----------------------------------|
||-----------------------------------|-----------------------------------|
||---------8-8-7-7-10-10-7-7-7-7-8-8-|---------8-8-7-7-10-10-7-7-7-7-8-8-|
||-6-6-6-6---------------------------|-6-6-6-6---------------------------|
pm - - - - - - - -  -  - - - - - - -   - - - - - - - -  -  - - - - - - -

||-----------------------------------|-----------------------------------|
||-----------------------------------|-----------------------------------|
||-----------------------------------|-----------------------------------|
||-----------------------------------|-----------------------------------|
||-----------------------------------|-----------------------------------|
||---------8-8-7-7-10-10-7-7-7-7-8-8-|---------8-8-7-7-10-10-7-7-7-7-8-8-|
||-6-6-6-6---------------------------|-6-6-6-6---------------------------|
pm - - - - - - - -  -  - - - - - - -   - - - - - - - -  -  - - - - - - -

Middle 1
||-----------------------|-----------------------|-----------------------|
||-----------------------|-----------------------|-----------------------|
||-----------------------|-----------------------|-----------------------|
||-----------------------|-----------------------|-----------------------|
||-----------------------|-----------------------|-----------------------|
||---------0-------------|---------0-------------|---------0-------------|
||-1-1-1-1-----2-4-5-1-2-|-1-1-1-1-----2-4-5-1-2-|-1-1-1-1-----2-4-5-1-2-|
pm - - - -                 - - - -                 - - - -

||----------------------------------|
||----------------------------------|
||----------------------------------|
||----------------------------------|
||----------------------------------|
||----------------------------------|
||-2-2-2-2-2--3-3-3-3-3--2-2-2-2-2--|
pm - - - -    - - - -    - - - -

||-----------------------|-----------------------|-----------------------|
||-----------------------|-----------------------|-----------------------|
||-----------------------|-----------------------|-----------------------|
||-----------------------|-----------------------|-----------------------|
||-----------------------|-----------------------|-----------------------|
||---------0-------------|---------0-------------|---------0-------------|
||-1-1-1-1-----2-4-5-1-2-|-1-1-1-1-----2-4-5-1-2-|-1-1-1-1-----2-4-5-1-2-|
pm - - - -                 - - - -                 - - - -

||----------------------------------|
||----------------------------------|
||----------------------------------|
||----------------------------------|
||----------------------------------|
||----------------------------------|
||-2-2-2-2-2--3-3-3-3-3--2-2-2-2-2--|
pm - - - -    - - - -    - - - -

Middle 2
||-----------------------------|-----------------------------|
||-----------------------------|-----------------------------|
||-----------------------------|-----------------------------|
||-----------------------------|-----------------------------|
||-4-4-4-3-3-3-3-3-3-3-3-3-3-3-|-4-4-4-3-3-3-3-3-3-3-3-3-3-3-|
||-2-2-2-1-1-1-1-1-1-1-1-1-1-1-|-2-2-2-1-1-1-1-1-1-1-1-1-1-1-|
||-----------------------------|-----------------------------|
pm         - - - - - - - - - -           - - - - - - - - - -

||-----------------------------|-----------------------------------|
||-----------------------------|-----------------------------------|
||-----------------------------|-4h5p4h5-5h6p5h6-7h8p7h8-9h10p9h10-|
||-----------------------------|-----------------------------------|
||-4-4-4-3-3-3-3-3-3-3-3-3-3-3-|-----------------------------------|
||-2-2-2-1-1-1-1-1-1-1-1-1-1-1-|-----------------------------------|
||-----------------------------|-----------------------------------|
pm         - - - - - - - - - -

||-----------------------------|-----------------------------|
||-----------------------------|-----------------------------|
||-----------------------------|-----------------------------|
||-----------------------------|-----------------------------|
||-4-4-4-3-3-3-3-3-3-3-3-3-3-3-|-4-4-4-3-3-3-3-3-3-3-3-3-3-3-|
||-2-2-2-1-1-1-1-1-1-1-1-1-1-1-|-2-2-2-1-1-1-1-1-1-1-1-1-1-1-|
||-----------------------------|-----------------------------|
pm         - - - - - - - - - -           - - - - - - - - - -

||-----------------------------|-----------------------------------|
||-----------------------------|-----------------------------------|
||-----------------------------|-4h5p4h5-5h6p5h6-7h8p7h8-9h10p9h10-|
||-----------------------------|-----------------------------------|
||-4-4-4-3-3-3-3-3-3-3-3-3-3-3-|-----------------------------------|
||-2-2-2-1-1-1-1-1-1-1-1-1-1-1-|-----------------------------------|
||-----------------------------|-----------------------------------|
pm         - - - - - - - - - -

||-----------------------------|-----------------------------|
||-----------------------------|-----------------------------|
||-----------------------------|-----------------------------|
||-----------------------------|-----------------------------|
||-4-4-4-3-3-3-3-3-3-3-3-3-3-3-|-4-4-4-3-3-3-3-3-3-3-3-3-3-3-|
||-2-2-2-1-1-1-1-1-1-1-1-1-1-1-|-2-2-2-1-1-1-1-1-1-1-1-1-1-1-|
||-----------------------------|-----------------------------|
pm         - - - - - - - - - -           - - - - - - - - - -

||-----------------------------|-----------------------------------|
||-----------------------------|-----------------------------------|
||-----------------------------|-4h5p4h5-5h6p5h6-7h8p7h8-9h10p9h10-|
||-----------------------------|-----------------------------------|
||-4-4-4-3-3-3-3-3-3-3-3-3-3-3-|-----------------------------------|
||-2-2-2-1-1-1-1-1-1-1-1-1-1-1-|-----------------------------------|
||-----------------------------|-----------------------------------|
pm         - - - - - - - - - -

||-----------------------------|-----------------------------|
||-----------------------------|-----------------------------|
||-----------------------------|-----------------------------|
||-----------------------------|-----------------------------|
||-4-4-4-3-3-3-3-3-3-3-3-3-3-3-|-4-4-4-3-3-3-3-3-3-3-3-3-3-3-|
||-2-2-2-1-1-1-1-1-1-1-1-1-1-1-|-2-2-2-1-1-1-1-1-1-1-1-1-1-1-|
||-----------------------------|-----------------------------|
pm         - - - - - - - - - -           - - - - - - - - - -

||-----------------------------|-----------------------------------|
||-----------------------------|-----------------------------------|
||-----------------------------|-4h5p4h5-5h6p5h6-7h8p7h8-9h10p9h10-|
||-----------------------------|-----------------------------------|
||-4-4-4-3-3-3-3-3-3-3-3-3-3-3-|-----------------------------------|
||-2-2-2-1-1-1-1-1-1-1-1-1-1-1-|-----------------------------------|
||-----------------------------|-----------------------------------|
pm         - - - - - - - - - -

||-----------------------------------|-----------------------------------|
||-----------------------------------|-----------------------------------|
||-4h5p4h5-5h6p5h6-7h8p7h8-9h10p9h10-|-4h5p4h5-5h6p5h6-7h8p7h8-9h10p9h10-|
||-----------------------------------|-----------------------------------|
||-----------------------------------|-----------------------------------|
||-----------------------------------|-----------------------------------|
||-----------------------------------|-----------------------------------|

||-----------------------------------|
||-----------------------------------|
||-4h5p4h5-5h6p5h6-7h8p7h8-9h10p9h10-|
||-----------------------------------|
||-----------------------------------|
||-----------------------------------|
||-----------------------------------|

Intro
||---------|----------|----------|--------------|
||---------|----------|----------|--------------|
||---------|----------|----------|--------------|
||---------|----------|----------|--------------|
||---------|----------|----------|------12-9-10-|
||-2-------|-6--------|-10-------|-8----10-7--8-|
||-0-------|-4--------|--8-------|-6------------|

||---------|----------|----------|----------------|
||---------|----------|----------|----------------|
||---------|----------|----------|----------------|
||---------|----------|----------|----------------|
||---------|----------|----------|---10-9-12-9-10-|
||-2-------|-6--------|-10-------|-8--8-7-10-7--8-|
||-0-------|-4--------|--8-------|-6--------------|

Main Riff
||---------------------|----------------------|-----------------------|
||---------------------|----------------------|-----------------------|
||---------------------|----------------------|-----------------------|
||---------------------|----------------------|-----------------------|
||---------------------|-------------6-6-6-5~-|-----------------------|
||-----7-7-----8-8-5-7-|-----7-7--------------|-----7-7-----10-10-7-8-|
||-0-0-----0-0---------|-4-4-----4-4----------|-8-8-----8-8-----------|
pm - -     - -           - -     - -            - -     - -

||----------------------------|
||----------------------------|
||----------------------------|
||----------LIE!!!!!!!--------|
||----------------------------|
||----------------------------|
||----------------------------|

||---------------------|----------------------|-----------------------|
||---------------------|----------------------|-----------------------|
||---------------------|----------------------|-----------------------|
||---------------------|----------------------|-----------------------|
||---------------------|-------------6-6-6-5~-|-----------------------|
||-----7-7-----8-8-5-7-|-----7-7--------------|-----7-7-----10-10-7-8-|
||-0-0-----0-0---------|-4-4-----4-4----------|-8-8-----8-8-----------|
pm - -     - -           - -     - -            - -     - -

||-----------------------------------|
||-----------------------------------|
||-----------------------------------|
||-----------------------------------|
||-----------------------------------|
||---------8-8-7-7-10-10-7-7-7-7-8-8-|
||-6-6-6-6---------------------------|
pm - - - - - - - -  -  - - - - - - -

||---------------------|----------------------|-----------------------|
||---------------------|----------------------|-----------------------|
||---------------------|----------------------|-----------------------|
||---------------------|----------------------|-----------------------|
||---------------------|-------------6-6-6-5~-|-----------------------|
||-----7-7-----8-8-5-7-|-----7-7--------------|-----7-7-----10-10-7-8-|
||-0-0-----0-0---------|-4-4-----4-4----------|-8-8-----8-8-----------|
pm - -     - -           - -     - -            - -     - -

||-----------------------------------|
||-----------------------------------|
||-----------------------------------|
||-----------------------------------|
||-----------------------------------|
||---------8-8-7-7-10-10-7-7-7-7-8-8-|
||-6-6-6-6---------------------------|
pm - - - - - - - -  -  - - - - - - -

||----------------------------|----------------------------|
||----------------------------|----------------------------|
||----------------------------|----------------------------|
||----------------------------|----------------------------|
||----------------------------|----------------------------|
||----------------------------|----------------------------|
||-0-0-0--0-0-0--0-0-0--0-0-0-|-4-4-4--4-4-4--4-4-4--4-4-4-|
pm - - -  - - -  - - -  - - -   - - -  - - -  - - -  - - -

||----------------------------|-----------------------------------|
||----------------------------|-----------------------------------|
||----------------------------|-----------------------------------|
||----------------------------|-----------------------------------|
||----------------------------|-----------------------------------|
||----------------------------|---------8-8-7-7-10-10-7-7-7-7-8-8-|
||-7-7-7--7-7-7--7-7-7--7-7-7-|-6-6-6-6---------------------------|
pm - - -  - - -  - - -  - - -   - - - - - - - -  -  - - - - - - -

||----------------------------|----------------------------|
||----------------------------|----------------------------|
||----------------------------|----------------------------|
||----------------------------|----------------------------|
||----------------------------|----------------------------|
||----------------------------|----------------------------|
||-0-0-0--0-0-0--0-0-0--0-0-0-|-4-4-4--4-4-4--4-4-4--4-4-4-|
pm - - -  - - -  - - -  - - -   - - -  - - -  - - -  - - -

||----------------------------|-----------------------------------|
||----------------------------|-----------------------------------|
||----------------------------|-----------------------------------|
||----------------------------|-----------------------------------|
||----------------------------|-----------------------------------|
||----------------------------|---------8-8-7-7-10-10-7-7-7-7-8-8-|
||-7-7-7--7-7-7--7-7-7--7-7-7-|-6-6-6-6---------------------------|
pm - - -  - - -  - - -  - - -   - - - - - - - -  -  - - - - - - -

||-----------------------------------|-----------------------------------|
||-----------------------------------|-----------------------------------|
||-----------------------------------|-----------------------------------|
||-----------------------------------|-----------------------------------|
||-----------------------------------|-----------------------------------|
||---------8-8-7-7-10-10-7-7-7-7-8-8-|---------8-8-7-7-10-10-7-7-7-7-8-8-|
||-6-6-6-6---------------------------|-6-6-6-6---------------------------|
pm - - - - - - - -  -  - - - - - - -   - - - - - - - -  -  - - - - - - -

||-----------------------------------|-----------------------------------|
||-----------------------------------|-----------------------------------|
||-----------------------------------|-----------------------------------|
||-----------------------------------|-----------------------------------|
||-----------------------------------|-----------------------------------|
||---------8-8-7-7-10-10-7-7-7-7-8-8-|-2---------------------------------|
||-6-6-6-6---------------------------|-0---------------------------------|
pm - - - - - - - -  -  - - - - - - -
            
Submit corrections

comments powered by Disqus
↑ Back to top | Fear Factory Tabs for Christploitation. Lyrics for acoustic guitar and electric guitar. Tablatures and chords are parodies/interpretations of the original songs. You may use it for private study, scholarship, research or language learning purposes only