» » »

Fear Factory, Burning Inside Tabs (ver.1)

Artists:  A B C D E F G H I J K L M N O P Q R S T U V W X Y Z # 

Burning Inside Tabs (ver.1)

Fear Factory Tabs
Rating:
0/5 (0 votes)
Hard to play? Try these video lessons and learn fast.
                Fear Factory & Static-X - Burning Inside

7 String Standard – B, E, A, D, G, B, E


Main Riff: W/ Dist
E|--------------------------------------|
B|--------------------------------------|
G|--------------------------------------|
D|--------------------------------------|
A|-7-6---7-6---7-6---7-6-6-6-4--7-7-7-6-|
E|-7-6---7-6---7-6---7-6-6-6-4--7-7-7-6-|
B|-5-4---5-4---5-4---5-4-4-4-2--5-5-5-4-|
PM   -     -     -           -        -


Main Riff: (With Out PM) W/ Dist
E|--------------------------------------|
B|--------------------------------------|
G|--------------------------------------|
D|--------------------------------------|
A|-7-6---7-6---7-6---7-6-6-6-4--7-7-7-6-|
E|-7-6---7-6---7-6---7-6-6-6-4--7-7-7-6-|
B|-5-4---5-4---5-4---5-4-4-4-2--5-5-5-4-|
PM                           -        -


Chorus Riff: W/ Dist
E|------------------------------------------------------|
B|------------------------------------------------------|
G|------------------------------------------------------|
D|------------------------------------------------------|
A|-7-6---------7-6---------7-6---------7-6-6-6-4--7-7-7-|
E|-7-6---------7-6---------7-6---------7-6-6-6-4--7-7-7-|
B|-5-4-4444444-5-4-4444444-5-4-4444444-5-4-4-4-2--5-5-5-|
PM   - \_____/   - \_____/   - \_____/         -      - 


Fill 1: W/ Dist
E|-------------------|
B|-------------------|
G|-------------------|
D|---------14-14-14--|
A|-6-6-6-4-14-14-14--|
E|-6-6-6-4-12-12-12--|
B|-4-4-4-2-----------|
PM       -


Ending / Fill 2: W/ Dist
E|------|
B|------|
G|------|
D|------|
A|-6----|
E|-6----|
B|-4----|


Fill 3: W/ Dist
E|-----|
B|-----|
G|-----|
D|-----|
A|-7-6-|
E|-7-6-|
B|-5-4-|
            

comments powered by Disqus
↑ Back to top | Fear Factory Tabs for Burning Inside. Lyrics for acoustic guitar and electric guitar. Tablatures and chords are parodies/interpretations of the original songs. You may use it for private study, scholarship, research or language learning purposes only