» » »

Fear Factory, Bonescraper Tabs (ver.1)

Artists:  A B C D E F G H I J K L M N O P Q R S T U V W X Y Z # 

Bonescraper Tabs (ver.1)

Fear Factory Tabs
 Rating:
4.2/5 (5 votes)
Bonescraper lessons Tabs too difficult? Try these video lessons and learn fast
                fear factory
bonescr*per

m = palm mute
()= let ring


(bass intro)

0: 11
RIFF A
E|----------------------------------------------------------------------------|
B|----------------------------------------------------------------------------|
G|----------------------------------------------------------------------------|
D|----------------------------------------------------------------------------|
A|--------------------5-------5-----------5-------5----5-5--------------------|
E|------------------4-3--4-4--3-4-------4-3--4-4--3-4--3-3--------------------|
B|------------------2----2-2----2-------2----2-2----2-------------------------|
(bass verse)
0: 34 play riff A again
(bass verse)
0: 57 play riff A 3X then RIFF A1:

RIFF A1
E|----------------------------------------------------------------------------|
B|----------------------------------------------------------------------------|
G|----------------------------------------------------------------------------|
D|----------------------------------------------------------------------------|
A|-----------5-------5-----------5--------------------------------------------|
E|---------4-3--4-4--3-4-------4-3--4-4---mmmm-mmmm---------------------------|
B|---------2----2-2----2-------2----2-2---5555-7777---------------------------|

1: 08 chorus RIFF B  X2
E|----------------------------------------------------------------------------|
B|----------------------------------------------------------------------------|
G|----------------------------------------------------------------------------|
D|----------------------------------------------------------------------------|
A|---6-6-6-6-6-6-6-6----------------------------------------------------------|
E|---4-4-4-4-4-4-4-4--7-7-7-7-7-7-7-7--4-4-4-4-4-4-4-4--4/-7-7-7--7-/-9-9-9---|
B|--------------------5-5-5-5-5-5-5-5--2-2-2-2-2-2-2-2--2/-5-5-5--5-/-7-7-7---|

E|---------------------------------------------------------------------------|
B|---------------------------------------------------------------------------|
G|---------------------------------------------------------------------------|
D|---------------------------------------------------------------------------|
A|---6-6-6-6-6-6-6-6---------------------------------------------------------|
E|---4-4-4-4-4-4-4-4--7-7-7-7-7-7-7-7--4-4-4-4-4-4-4-4--m-7--m-m-9-----------|
B|--------------------5-5-5-5-5-5-5-5--2-2-2-2-2-2-2-2--5-5--5-7-7-----------|


1: 31 back to riff A X8
2: 05 riff A 3X then riff A1
2: 15 Chorus

2: 39 RIFF C X2
        all the single notes are palm muted
E|----------------------------|-----------------------------|        -----|
B|----------------------------|-----------------------------|        -----|
G|----------------------------|-----------------------------|        -----|
D|----------------------------|-----------------------------|        --6--|
A|--------4--------4----------|--------4--------4-----------|        --x--| another guitar plays
E|--------x--------x----------|--------x--------x-----------|        --4--| this chord over the C#
B|-2-222--2--2-2-2-2--2-2-222-|-2-222--2--2-2-2-2--222-222--|        -----| on the first time


E|----------------------------|-----------------------------|        -----|
B|----------------------------|-----------------------------|        -----|
G|----------------------------|-----------------------------|        -----|
D|----------------------------|-----------------------------|        --5--|
A|--------4--------4----------|--------4--------4-----------|        --x--| another guitar plays
E|--------x--------x----------|--------x--------x-----------|        --3--| this chord over the C#
B|-2-222--2--2-2-2-2--2-2-222-|-2-222--2--2-2-2-2--33333333-|        -----| on the second time

3: 03 (all pm) X2

E|------------------------|------------------------------|
B|------------------------|------------------------------|
G|------------------------|------------------------------|
D|------------------------|------------------------------|
A|------------------------|------------------------------|
E|------------------------|------------------------------|
B|--2-222-2--2-222-2--222-|-2-222-2--2-222-2--2-222------|

E|------------------------|------------------------------|
B|------------------------|------------------------------|
G|------------------------|------------------------------|
D|------------------------|------------------------------|
A|------------------------|------------------------------|
E|------------------------|------------------------------|
B|--2-222-2--2-222-2--222-|-2-222-2--2-222-2--2-33333333-|

3: 26 RIFF C

3: 49 RIFF D
E|-----------------------------------------|
B|-----------------------------------------|
G|-----------------------------------------|
D|-----------------------------------------|
A|-(6)-------------------------------------|
E|-(4)---(7)---4---4---4/-7-7-7--7/-9-9-9--|
B|-------(5)---2---2---2/-5-5-5--5/-7-7-7--|

E|--------------------------------------------------------------|
B|--------------------------------------------------------------|
G|--------------------------------------------------------------|
D|--------------------------------------------------------------|
A|-6-6-6-6-6-6-6-6----------------------------------------------|
E|-4-4-4-4-4-4-4-4--7-7-7-7-7-7-7-7--4-4-4-4-4-4-4-4--m-7-m-m-9-|
B|------------------5-5-5-5-5-5-5-5--2-2-2-2-2-2-2-2--5-5-5-7-7-|


3: 59 chorus RIFF B only once

4: 10 (not sure of this part because it was tough to hear with the keyboards)
RIFF E X4
E|----------------------------------------------------------------------------|
B|----------------------------------------------------------------------------|
G|----------------------------------------------------------------------------|
D|----------------------------------------------------------------------------|
A|-----6-6-6-6-6-6-6-6-6-6-6-6-6-6-6-6----------------------------------------|
E|-----4-4-4-4-4-4-4-4-4-4-4-4-4-4-4-4--7-7-7-7-7-7-7-7-7--7-7-7-7-7-7-7-7----|
B|--------------------------------------5-5-5-5-5-5-5-5-5--4-4-4-4-4-4-4-4----|


E|----------------------------------------------------------------------------|
B|----------------------------------------------------------------------------|
G|----------------------------------------------------------------------------|
D|----------------------------------------------------------------------------|
A|----------------------------------------------------------------------------|
E|-----4-4-4-4-4-4-4-4-4-4-4-4-4-4-4-4--4/-7-7-7-7-7-7-7-7--7/-9-9-9-9-9-9-9--|
B|-----2-2-2-2-2-2-2-2-2-2-2-2-2-2-2-2--2/-5-5-5-5-5-5-5-5--5/-7-7-7-7-7-7-7--|

4: 56 RIFF A X2
            
Submit corrections

comments powered by Disqus
↑ Back to top | Fear Factory Tabs for Bonescraper. Lyrics for acoustic guitar and electric guitar. Tablatures and chords are parodies/interpretations of the original songs. You may use it for private study, scholarship, research or language learning purposes only