» » »

Bite The Hand That Bleeds Tabs (ver.2)

Artists:  A B C D E F G H I J K L M N O P Q R S T U V W X Y Z # 

Bite The Hand That Bleeds Tabs (ver.2)

Fear Factory
Rating:
4/5 (1 vote)

Hard to play? Try these video lessons and learn fast.
                 A)
|----------------------------------------------------------------|
|--------------15------------------------------------------------|
|--------------------15------------------------------------------|
|------------------------------6---------------------------------|
|----------------------------------------------------------------|
|-0---------------------3-----------6----3-------3---6---3---6---|


 B)
|----------------------------------------------------------------|
|----------------------------------------------------------------|
|----------------------------------------------------------8-----|
|--------8-------------------------------------------------8-----|
|-----------8-----------8-------------------------8--------------|
|-6--------------6------------6---8---------8---------8----------|


 C)
|----------------------------------------------------------------|
|----------------------------------------------------------------|
|----------------------------------------------------------------|
|-0-----------------3-------------6----3--------3---6---3---6----|
|-0-----------------3-------------6----3--------3---6---3---6----|
|-0-----------------3-------------6----3--------3---6---3---6----|


 D)
|----------------------------------------------------------------|
|----------------------------------------------------------------|
|----------------------------------------------------------------|
|-6-----------------6---6---6---6------------6------8---8---8----|
|-6-----------------6---6---6---6------------6------8---8---8----|
|-6-----------------6---6---6---6------------6------8---8---8----|


 E)
|----------------------------------------------------------------|
|----------------------------------------------------------------|
|-7---------7---7--------7---------------------------------------|
|-7---------7---7--------7----------3---3-----3----0----3--------|
|-5---------5---5--------5----------3---3-----3----0----3--------|
|-----------------------------------3---3-----3----0----3--------|


 F)
|----------------------------------------------------------------|
|----------------------------------------------------------------|
|-5---------5---5--------5---------------------------------------|
|-5---------5---5--------5----------1---1-----1----0----1--------|
|-3---------3---3--------3----------1---1-----1----0----1--------|
|-----------------------------------1---1-----1----0----1--------|


 G)
|----------------------------------------------------------------|
|----------------------------------------------------------------|
|-5---------5---5--------5----------8---8-----8----7----8--------|
|-5---------5---5--------5----------8---8-----8----7----8--------|
|-3---------3---3--------3----------6---6-----6----5----6--------|
|----------------------------------------------------------------|


 H)
|----------------------------------------------------------------|
|----------------------------------------------------------------|
|------7---7---7---7------7----/----10--10-----10-\----7---/--10-|
|----------------------------------------------------------------|
|------5---5---5---5------5----/----8---8------8--\----5---/--8--|
|----------------------------------------------------------------|


 I)
|----------------------------------------------------------------|
|----------------------------------------------------------------|
|------5---5---5---5------5----/----8---8------8--\----7---/--8--|
|----------------------------------------------------------------|
|------3---3---3---3------3----/----6---6------6--\----5---/--6--|
|----------------------------------------------------------------|


 J)
|-----------------3----------------3----------3-----------3------|
|-----------------3----------------3----------3-----------3------|
|-----------------3----------------3----------3-----------3------|
|----------------------------------------------------------------|
|-----------------5----------------3----------6-----------5------|
|----------------------------------------------------------------|


 K)
|-3---3---3---3---3--3--------3---3---3---3---3---3---3--3-------|
|-----5---5---5---5--5--------4---4---4---4---4---4---4--4-------|
|-----5---5---5---5--5--------3---3---3---3---3---3---3--3-------|
|-----5---5---5---5--5--------5---5---5---5---5---5---5--5-------|
|-----3---3---3---3--3--------6---6---6---6---6---6---6--6-------|
|----------------------------------------------------------------|


 L)
|-------------------------3--------------------------------------|
|------------------3---------------------------------------------|
|-----------3----------------------------------------------------|
|----------------------------------------------------------------|
|--5-------------------------------------------------------------|
|----------------------------------------------------------------|

Order:

A) X3
B) 
A) X3
B)
C) X3
D)
E)
F)
E)
G)
H)
I)
A) X3
B) 
A) X3
B)
C) X3
D)
E)
F)
E)
G)
H)
I)
H)
I)
J)
K)
E)
F)
G)
H)}
I)} X4
L)
            
Hard to play? Try these video lessons and learn fast. | Correct




comments powered by Disqus
↑ Back to top | Tablatures and chords are parodies/interpretations of the original songs. You may use it for private study, scholarship, research or language learning purposes only