» » »

Fear Factory, Bite The Hand That Bleeds Bass tabs (ver.2)

Artists:  A B C D E F G H I J K L M N O P Q R S T U V W X Y Z # 

Bite The Hand That Bleeds Bass tabs (ver.2)

Fear Factory Tabs
 Rating:
4/5 (4 votes)
Bite The Hand That Bleeds lessons Tabs too difficult? Try these video lessons and learn fast
1
                
BITE THE HAND THAT BLEEDS (Bassline)
As recorded by Fear Factory
(From the 2004 Album ARCHETYPE)

	

Words and Music by Fear Factory

Gtr I (B E A D G) - 'Bass Gtr'

 Verse 1 & 2
  Q=112
  $
 4/4
  Gtr I
  Wx16
|---------|
|---------|
|---------|
|---------|
|---------|


                                 1.
    H    Q.   E   E Q  E E E Q    H    Q.   E
||--------------|---------------|-------------|
||o-------------|---------------|-------------|
||--------------|---------------|-------------|
||o-------------|---------------|-------------|
||--0----3----6-|---3--3-6-3-6--|-0----3----6-|


                    2.
  E Q  E E E Q      Q  E E Q.   E   E Q  Q  Q.
|----------------||---------------|---------------||
|---------------o||---------------|---------------||
|----------------||---------------|---------------||
|---------------o||---------------|---------------||
|---3--3-6-3-6---||-6--6-6-6----6-|---8--8--8-----||


   Chorus
    Q.   E Q.   E   E E Q  E E Q    Q.   E Q.   E   E E Q  E E Q
||----------------|---------------|---------------|-----------------||
||o---------------|---------------|---------------|----------------o||
||----------------|---------------|-0----0-0----0-|-----------------||
||o---------------|---------------|---------------|----------------o||
||--0----0-0----0-|---3-3--3-0-3--|---------------|---1-1--1-0-1----||


                                                         D.S.
  Q.   E Q.   E   E E Q  E E Q    Q.   E Q.   E   E E Q  E E Q
|---------------|---------------|---------------|---------------|
|---------------|---------------|---------------|---------------|
|---------------|---------------|-0----0-0----0-|---------------|
|---------------|---------------|---------------|---------------|
|-0----0-0----0-|---3-3--3-0-3--|---------------|---1-1--1-0-1--|


  Q.   E Q.   E   E E Q  E E Q    Q.   E Q.   E   E E Q  E E Q
|---------------|---------------|---------------|---------------||
|---------------|---------------|---------------|---------------||
|---------------|---------------|-0----0-0----0-|---------------||
|---------------|---------------|---------------|---------------||
|-0----0-0----0-|---3-3--3-0-3--|---------------|---1-1--1-0-1--||


 Bridge
  W          H    Q  Q    +H.      Q    +H.      Q    +W           Wx2
|----------|------------|-------------|-------------|------------|--------||
|----------|------------|-------------|-------------|------------|--------||
|----------|---------0--|-(0)------3--|-(3)---------|------------|--------||
|----------|------------|-------------|----------7--|-(7)--------|--------||
|-0--------|------------|-------------|-------------|------------|--------||


   Chorus
    Q.   E Q.   E   E E Q  E E Q    Q.   E Q.   E   E E Q  E E Q    6x
||----------------|---------------|---------------|-----------------||
||o---------------|---------------|---------------|----------------o||
||----------------|---------------|-0----0-0----0-|-----------------||
||o---------------|---------------|---------------|----------------o||
||--0----0-0----0-|---3-3--3-0-3--|---------------|---1-1--1-0-1----||


 Outro
  W          W
|----------|------*|
|----------|------*|
|----------|------*|
|----------|------*|
|----------|------*|



Duration Legend
---------------
W - whole; H - half; Q - quarter; E - 8th; S - 16th; T - 32nd; X - 64th; a - acciaccatura
+ - note tied to previous; . - note dotted; .. - note double dotted
Uncapitalized letters represent notes that are staccato (1/2 duration)
Irregular groupings are notated above the duration line
Duration letters will always appear directly above the note/fret number it represents the
duration for.  Duration letters with no fret number below them represent rests.  Multi-
bar rests are notated in the form Wxn, where n is the number of bars to rest for.  Low
melody durations appear below the staff

Tablature Legend
----------------
 h   - hammer-on
 p   - pull-off
 b   - bend
 pb  - pre-bend
 r   - bend release (if no number after the r, then release immediately)
 /\  - slide into or out of (from/to "nowhere")
 s   - legato slide
 S   - shift slide
 - natural harmonic
[n]  - artificial harmonic
n(n) - tapped harmonic
 ~   - vibrato
 tr  - trill
 T   - tap
 TP  - trem. picking
 PM  - palm muting
\n/  - tremolo bar dip; n = amount to dip
 \n  - tremolo bar down
 n/  - tremolo bar up
/n\  - tremolo bar inverted dip
 =   - hold bend; also acts as connecting device for hammers/pulls
 <> - volume swell (louder/softer)
 x   - on rhythm slash represents muted slash
 o   - on rhythm slash represents single note slash

Misc Legend
-----------
 |  - bar
||  - double bar
||o - repeat start
o|| - repeat end
*|  - double bar (ending)
 :  - bar (freetime)
 $  - Segno
 &  - Coda
Tempo markers -  = BPM(8/16=s8/s16), where s8 = swing 8ths, s16 = swing 16ths
            
Submit corrections

comments powered by Disqus
↑ Back to top | Fear Factory Bass for Bite The Hand That Bleeds. Lyrics for acoustic guitar and electric guitar. 1 Tablatures and chords are parodies/interpretations of the original songs. You may use it for private study, scholarship, research or language learning purposes only