» » »

Bite The Hand That Bleeds Tabs (ver.1)

Artists:  A B C D E F G H I J K L M N O P Q R S T U V W X Y Z # 

Bite The Hand That Bleeds Tabs (ver.1)

Fear Factory
Rating:
4/5 (3 votes)

Hard to play? Try these video lessons and learn fast.
                Fear Factory - Bite The Hand That Bleeds
Tuning: Standard (B E A D G B E)

MAIN
|----------------------------------------------------------------|
|----------<12>--------------------------------------------------|
|----------------<12>--------------------------------------------|
|------------------------------0---------------------------------|
|----------------------------------------------------------------|
|----------------------------------------------------------------|
|-0---------------------3-----------6----3-------3---6---3---6---|

                               ( ) = 2nd Time play this instead
|----------------------------------------------------------------|
|---------------------------------------------------------(0)----|
|--------0-------------------------------------------------0-----|
|-----------0-----------0-------------------------0--------------|
|----------------------------------------------------------------|
|----------------------------------------------------------------|
|-6--------------6------------6---8---------8---------8----------|


POWER MAIN
|---------------------------------------------------------------|
|---------------------------------------------------------------|
|-2-----------------5-------------8----5--------5---8---5---8---|
|-2-----------------5-------------8----5--------5---8---5---8---|
|-0-----------------3-------------6----3--------3---6---3---6---|

|---------------------------------------------------------------|
|--------0------------------------------------------------------|
|-----------0---------------------------------------------------|
|---------------------------------------------------------------|
|-6---------------6-----6------6---8---------8------8------8----|
|-6---------------6-----6------6---8---------8------8------8----|
|-4---------------4-----4------4---6---------6------6------6----|

CHORUS
|----------------------------------------------------|
|-9--------------------------------------------------|
|-9---------------------5----5--------5----2----5----|
|-7---------------------5----5--------5----2----5----|
|-----------------------3----3--------3----0----3----|


|----------------------------------------------------|
|-7--------------------------------------------------|
|-7---------------------3----3--------3----2----3----|
|-5---------------------3----3--------3----2----3----|
|-----------------------1----1--------1----0----1----|


|----------------------------------------------------|
|-9--------------------------------------------------|
|-9---------------------5----5--------5----2----5----|
|-7---------------------5----5--------5----2----5----|
|-----------------------3----3--------3----0----3----|


|----------------------------------------------------|
|-7---------------------10---10-------10---9----10---|
|-7---------------------10---10-------10---9----10---|
|-5---------------------8----8--------8----7----8----|
|----------------------------------------------------|


CHORUS LEAD
|----------------------------------------------------|
|-9---------------------12---12-------12---9----12---|
|----------------------------------------------------|
|-7---------------------10---10-------10---7----10---|
|----------------------------------------------------|


|----------------------------------------------------|
|-7---------------------10---10-------10---9----10---|
|----------------------------------------------------|
|-5----------------------8----8--------8---7-----8---|
|----------------------------------------------------|


MIDDLE
|-----------0----------------------------------------0--------------------0--|
|--------0----------------------------------------0--------------------0-----|
|-----0----------------------------------------0--------------------0--------|
|----------------------------------------------------------------------------|
|----------------------------------------------------------------------------|
|--7----------------------------------------5--------------------8-----------|
|--0-------------------------------------------------------------------------|


|----------0-----------------------------------------------------------------|
|-------0--------------------------------------------------------------------|
|----0-----------------------------------------------------------------------|
|-------------------------------------------7--------------------10----------|
|-------------------------------------------7--------------------10----------|
|-7-----------------------------------------5---------------------8----------|
|-0--------------------------------------------------------------------------|


OUTRO
|------------------0-------------|
|------------0-------------------|
|------0-------------------------|
|--------------------------------|
|--------------------------------|
|-7------------------------------|
|-0------------------------------|
            
Hard to play? Try these video lessons and learn fast. | Correct




comments powered by Disqus
↑ Back to top | Tablatures and chords are parodies/interpretations of the original songs. You may use it for private study, scholarship, research or language learning purposes only