» » »

Big God Tabs (ver.2)

Artists:  A B C D E F G H I J K L M N O P Q R S T U V W X Y Z # 

Big God Tabs (ver.2)

Fear Factory
Rating:
0/5 (0 votes)

Hard to play? Try these video lessons and learn fast.
                Band: Fear Factory


Tuning: B E A D F# B

. = Palm Mute
~ = Let Ring
/ = Slide
b = bend
r = release


Intro                x4
|----------------------|
|----------------------|
|----------------------|
|-2-2-2-2-2--2-2-2-2-2-|
|-2-2-2-2-2--2-2-2-2-2-|
|-0-0-0-0-0--0-0-0-0-0-|
  . . . . .  . . . . .

Main                         x2
|------------------------------|
|------------------------------|
|------------------------------|
|-2-2-2-2-2--2-2-2-2-2--7--5/7-|
|-2-2-2-2-2--2-2-2-2-2--7--5/7-|
|-0-0-0-0-0--0-0-0-0-0--5--3/5-|
  . . . .    . . . .

Verse                        x2
|------------------------------|
|------------------------------|
|------------------------------|
|-2-2-2-2-2--2-2-2-2-2--7--5/7-|
|-2-2-2-2-2--2-2-2-2-2--7--5/7-|
|-0-0-0-0-0--0-0-0-0-0--5--3/5-|
  . . . .    . . . .

|-----------------------------------------------------------------|
|-----------------------------------------------------------------|
|-9-9-9-9-9-9-9-9-9-9-9-9-9-9-9-9-9/7-7-7-7-7-7-7-7-7-7-7-7-7-7-7-|
|-x-x-x-x-x-x-x-x-x-x-x-x-x-x-x-x-x/x-x-x-x-x-x-x-x-x-x-x-x-x-x-x-|
|-7-7-7-7-7-7-7-7-7-7-7-7-7-7-7-7-7/5-5-5-5-5-5-5-5-5-5-5-5-5-5-5-|
|-----------------------------------------------------------------|

                             x2
|------------------------------|
|------------------------------|
|------------------------------|
|-2-2-2-2-2--2-2-2-2-2--7--5/7-|
|-2-2-2-2-2--2-2-2-2-2--7--5/7-|
|-0-0-0-0-0--0-0-0-0-0--5--3/5-|
  . . . .    . . . .

|-----------------------------------------------------------------|
|-----------------------------------------------------------------|
|-9-9-9-9-9-9-9-9-9-9-9-9-9-9-9-9-9/7-7-7-7-7-7-7-7-7-7-7-7-7-7-7-|
|-x-x-x-x-x-x-x-x-x-x-x-x-x-x-x-x-x/x-x-x-x-x-x-x-x-x-x-x-x-x-x-x-|
|-7-7-7-7-7-7-7-7-7-7-7-7-7-7-7-7-7/5-5-5-5-5-5-5-5-5-5-5-5-5-5-5-|
|-----------------------------------------------------------------|


Chorus                           x4
|----------------------------------|
|----------------------------------|
|----------------------------------|
|----------------------------------|
|-7/6-----6/5---5/4--0-4-0-4-5-4-0-|
|-5/4-0-0-4/3-0-3/2--0-2-0-2-3-2-0-|
      . .     .      . . . . . . .

Bridge                      x3                               x1
|-----------------------------|--------------------------------|
|-----------------------------|--------------------------------|
|-----------------------/7--6-|-----------------------/7--6~---|
|-2-2-2-2-2--2-2-2-2-2---0--0-|-2-2-2-2-2--2-2-2-2-2---0--0~---|
|-2-2-2-2-2--2-2-2-2-2--------|-2-2-2-2-2--2-2-2-2-2---------0-|
|-0-0-0-0-0--0-0-0-0-0--------|-0-0-0-0-0--0-0-0-0-0-----------|
  . . . . .  . . . . .          . . . . .  . . . . .

Main                         x2
|------------------------------|
|------------------------------|
|------------------------------|
|-2-2-2-2-2--2-2-2-2-2--7--5/7-|
|-2-2-2-2-2--2-2-2-2-2--7--5/7-|
|-0-0-0-0-0--0-0-0-0-0--5--3/5-|
  . . . .    . . . .

Verse                        x2
|------------------------------|
|------------------------------|
|------------------------------|
|-2-2-2-2-2--2-2-2-2-2--7--5/7-|
|-2-2-2-2-2--2-2-2-2-2--7--5/7-|
|-0-0-0-0-0--0-0-0-0-0--5--3/5-|
  . . . .    . . . .

|-----------------------------------------------------------------|
|-----------------------------------------------------------------|
|-9-9-9-9-9-9-9-9-9-9-9-9-9-9-9-9-9/7-7-7-7-7-7-7-7-7-7-7-7-7-7-7-|
|-x-x-x-x-x-x-x-x-x-x-x-x-x-x-x-x-x/x-x-x-x-x-x-x-x-x-x-x-x-x-x-x-|
|-7-7-7-7-7-7-7-7-7-7-7-7-7-7-7-7-7/5-5-5-5-5-5-5-5-5-5-5-5-5-5-5-|
|-----------------------------------------------------------------|

                             x2
|------------------------------|
|------------------------------|
|------------------------------|
|-2-2-2-2-2--2-2-2-2-2--7--5/7-|
|-2-2-2-2-2--2-2-2-2-2--7--5/7-|
|-0-0-0-0-0--0-0-0-0-0--5--3/5-|
  . . . .    . . . .

|-----------------------------------------------------------------|
|-----------------------------------------------------------------|
|-9-9-9-9-9-9-9-9-9-9-9-9-9-9-9-9-9/7-7-7-7-7-7-7-7-7-7-7-7-7-7-7-|
|-x-x-x-x-x-x-x-x-x-x-x-x-x-x-x-x-x/x-x-x-x-x-x-x-x-x-x-x-x-x-x-x-|
|-7-7-7-7-7-7-7-7-7-7-7-7-7-7-7-7-7/5-5-5-5-5-5-5-5-5-5-5-5-5-5-5-|
|-----------------------------------------------------------------|


Chorus                           x4
|----------------------------------|
|----------------------------------|
|----------------------------------|
|----------------------------------|
|-7/6-----6/5---5/4--0-4-0-4-5-4-0-|
|-5/4-0-0-4/3-0-3/2--0-2-0-2-3-2-0-|
      . .     .      . . . . . . .

Bridge
|------------------------------------|
|------------------------------------|
|-----------------------/7---6~------|
|-2-2-2-2-2--2-2-2-2-2---0---0~------|
|-2-2-2-2-2--2-2-2-2-2------------0~-|
|-0-0-0-0-0--0-0-0-0-0---------------|
  . . . . .  . . . . .

Fill
|-------------------|
|-------------------|
|-------------------|
|-2-2-2-2-2-2-2-2-2-|
|-2-2-2-2-2-2-2-2-2-|
|-0-0-0-0-0-0-0-0-0-|
  . . . . . . . .

Outro
|--------------------------------------------------------|
|--------------------------------------------------------|
|--------------------------------------------------------|
|--------------------------------------------------------|
|-4-----------4-----------3-----------3------------3-4-6-|
|-2-x-4b5r4b5-2-x-4b5r4b5-1-x-4b5r4b5-1-x-4b5r4b5--1-2-4-|
                                                   . .

|-------------------------------------------|
|-------------------------------------------|
|-------------------------------------------|
|-------------------------------------------|
|-4-----------3-----------4-----------3-4-6-|
|-2-x-4b5r4b5-1-x-4b5r4b5-2-x-4b5r4b5-1-2-4-|


|-------------------------------------------|
|-------------------------------------------|
|-------------------------------------------|
|-------------------------------------------|
|-4-----------3-----------4-----------3-4-6-|
|-2-x-4b5r4b5-1-x-4b5r4b5-2-x-4b5r4b5-1-2-4-|
                                      . .

|-------------------------------------------|
|-------------------------------------------|
|-------------------------------------------|
|-------------------------------------------|
|-4-----------3-----------4-----------3-4-6-|
|-2-x-4b5r4b5-1-x-4b5r4b5-2-x-4b5r4b5-1-2-4-|
                                      . .
            
Hard to play? Try these video lessons and learn fast. | Correct




comments powered by Disqus
↑ Back to top | Tablatures and chords are parodies/interpretations of the original songs. You may use it for private study, scholarship, research or language learning purposes only