» » »

Back The Fuck Up Tabs (ver.1)

Artists:  A B C D E F G H I J K L M N O P Q R S T U V W X Y Z # 

Back The Fuck Up Tabs (ver.1)

Fear Factory
Rating:
5/5 (2 votes)

Hard to play? Try these video lessons and learn fast.
                Fear Factory
"Back the F*ck up"
Digimortal

Corrected By: Thommoboy

You could also play it on a 6 string by dropping the high D (A,D,G,C,F,A)
Listen to the song for exact tempo.


INTRO (0:10)
D|---------------------------------------------------|
A|---------------------------------------------------|
F|---------------------------------------------------|
C|---------------------------------------------------| REPEAT 8 TIMES
G|---------------------------------------------------|
D|--0-0-0-0-0-0-0-0--1111111111111111----------------|
A|---------------------------------------------------|
PM  . . . . . . . .  ................

Pre-Chorus/Verse (0:29)
D|---------------------------------------------------|
A|---------------------------------------------------|
F|---------------------------------------------------|
C|---------------------------------------------------| REPEAT 4 TIMES
G|--2-2-2-2-2-2-2-2----------------------------------|
D|--0-0-0-0-0-0-0-0--1111111111111111----------------|
A|---------------------------------------------------|
PM  . . . . . . . .  ................

Chorus (0:39)
D|------------------------------------------------------------|
A|------------------------------------------------------------|
F|------------------------------------------------------------|
C|------------------------------------------------------------| REPEAT 4 TIMES
G|------------------------------------------------------------|
D|--5/6-----5/65/65/6------5/65/65/6------5/65/65/6------7/8--|
A|--3/4--0--3/43/43/4---0--3/43/43/4---0--3/43/43/4---0--5/6--|
PM       .                .                .                .

REPEAT INTRO(1:08)
D|---------------------------------------------------|
A|---------------------------------------------------|
F|---------------------------------------------------|
C|---------------------------------------------------| REPEAT 4 TIMES
G|---------------------------------------------------|
D|--0-0-0-0-0-0-0-0--1111111111111111----------------|
A|---------------------------------------------------|
PM  . . . . . . . .  ................

REPEAT Pre-Chorus/Verse (1:17)
D|---------------------------------------------------|
A|---------------------------------------------------|
F|---------------------------------------------------|
C|---------------------------------------------------| REPEAT 4 TIMES
G|--2-2-2-2-2-2-2-2----------------------------------|
D|--0-0-0-0-0-0-0-0--1111111111111111----------------|
A|---------------------------------------------------|
PM  . . . . . . . .  ................

2nd Chorus
D|------------------------------------------------------------|
A|------------------------------------------------------------|
F|------------------------------------------------------------|
C|------------------------------------------------------------| REPEAT 4 TIMES
G|------------------------------------------------------------|
D|--5/6-----5/65/65/6------5/65/65/6------5/65/65/6------7/8--|
A|--3/4--0--3/43/43/4---0--3/43/43/4---0--3/43/43/4---0--5/6--|
PM       .                .                .                .

D|-------------------------------------|
A|-------------------------------------|
F|-------------------------------------|
C|-------------------------------------|
G|-------------------------------------|
D|---5-6---7-8---5-6---7-8-------------|
A|---3-4---5-6---3-4---5-6-------------|
PM

BRIDGE 1st Riff(1:48)
D|--------------------------------------------------------------------------|
A|--------------------------------------------------------------------------|
F|--2-3-2-3-2-3-2-3-2-3-2-3-------------------------------------------------|
C|--------------------------------------------------------------------------| REPEAT 4 TIMES
G|-----------------------------2--3--2--3---2-3--2--3--2--3--2--------------|
D|-----------------------------0--1--0--1---0-1--0--1--0--1--0--------------|
A|--------------------------------------------------------------------------|
PM  . . . . . . . . . . . .

2nd Riff (2:04)
D|-----------------------------------------------|
A|-----------------------------------------------|
F|-----------------------------------------------|
C|-----------------------------------------------| REPEAT 4 TIMES
G|--2--3--2--3---2-3--2--3--2--3--2--------------|
D|--0--1--0--1---0-1--0--1--0--1--0--------------|
A|-----------------------------------------------|
PM

3rd Riff (2:14)
D|----------------------------------------|
A|----------------------------------------|
F|----------------------------------------|
C|----------------------------------------| REPEAT 4 TIMES
G|--2--3--2--3-------2-3--2--3------------|
D|--0--1--0--1--000--0-1--0--1--000-------|
A|----------------------------------------|
PM              ...             ...

Ending Riff
D|----------------------------------------|
A|----------------------------------------|
F|----------------------------------------|
C|----------------------------------------|
G|--2--3--2--3-------2-2-2-2-2-2-2-2------|
D|--0--1--0--1--000--0-0-0-0-0-0-0-0------|
A|----------------------------------------|
PM              ...  . . . . . . . .


REPEAT 2nd Chorus
2nd Chorus
D|------------------------------------------------------------|
A|------------------------------------------------------------|
F|------------------------------------------------------------|
C|------------------------------------------------------------| REPEAT 4 TIMES
G|------------------------------------------------------------|
D|--5/6-----5/65/65/6------5/65/65/6------5/65/65/6------7/8--|
A|--3/4--0--3/43/43/4---0--3/43/43/4---0--3/43/43/4---0--5/6--|
PM       .                .                .                .

D|-------------------------------------|
A|-------------------------------------|
F|-------------------------------------|
C|-------------------------------------|
G|-------------------------------------|
D|---5-6---7-8---5-6---7-8-------------|
A|---3-4---5-6---3-4---5-6-------------|
PM

OUTRO
D|---------------------------------------------------|
A|---------------------------------------------------|
F|---------------------------------------------------|
C|---------------------------------------------------| REPEAT 4 TIMES
G|---------------------------------------------------|
D|--0-0-0-0-0-0-0-0--1111111111111111----------------|
A|---------------------------------------------------|
PM  . . . . . . . .  ................
            
Hard to play? Try these video lessons and learn fast. | Correct




comments powered by Disqus
↑ Back to top | Tablatures and chords are parodies/interpretations of the original songs. You may use it for private study, scholarship, research or language learning purposes only