» » »

A Theripy Of Pain Tabs (ver.1)

Artists:  A B C D E F G H I J K L M N O P Q R S T U V W X Y Z # 

A Theripy Of Pain Tabs (ver.1)

Fear Factory
Rating:
0/5 (0 votes)

Hard to play? Try these video lessons and learn fast.
                -Intro-(let ring)
|-----------------------------------------------------|
|-----------------------------------------------------|
|-----------------------------------------------------|
|--10-------------------------------------------------|
|--10-------------------------------------------------|
|--8--------------------------------------------------|

Riff B:
|-----------------------------------------------------|
|-----------------------------------------------------|
|-----------------------------------------------------|
|--10-------10--9-----5-----8--------8--7-----3-------|
|--10-------10--9-----5-----8--------8--7-----3-------|
|--8--------8---7-----3-----6--------6--5-----1-------|

Riff C:
Fade out w/ keyboards and bass in unison with guitar
|-----------------------------------------------------|
|-----------------------------------------------------|
|-----------------------------------------------------|
|--3--------------------------------------------------|
|--3--------------------------------------------------|
|--1--------------------------------------------------|-Intro-(let ring)
|-----------------------------------------------------|
|-----------------------------------------------------|
|-----------------------------------------------------|
|--10-------------------------------------------------|
|--10-------------------------------------------------|
|--8--------------------------------------------------|

Riff B:
|-----------------------------------------------------|
|-----------------------------------------------------|
|-----------------------------------------------------|
|--10-------10--9-----5-----8--------8--7-----3-------|
|--10-------10--9-----5-----8--------8--7-----3-------|
|--8--------8---7-----3-----6--------6--5-----1-------|

Riff C:
Fade out w/ keyboards and bass in unison with guitar
|-----------------------------------------------------|
|-----------------------------------------------------|
|-----------------------------------------------------|
|--3--------------------------------------------------|
|--3--------------------------------------------------|
|--1--------------------------------------------------|
            
Hard to play? Try these video lessons and learn fast. | Correct




comments powered by Disqus
↑ Back to top | Tablatures and chords are parodies/interpretations of the original songs. You may use it for private study, scholarship, research or language learning purposes only