» » »

Fear Factory, Act Of God Tabs (ver.1)

Artists:  A B C D E F G H I J K L M N O P Q R S T U V W X Y Z # 

Act Of God Tabs (ver.1)

Fear Factory Tabs
 Rating:
3.1/5 (7 votes)
Act Of God lessons Tabs too difficult? Try these video lessons and learn fast
                Key

palm mute = .
H = Hammer
P = Pull off


Intro:

E|------------------------------------------------------------------------|
B|------------------------------------------------------------------------|
G|------------------------------------------------------------------------|
D|------------------------------------------------------------------------|
A|------------------------------------------------------------------------|
E|-5-4-4-4-4-----4-4-4-4-4---------5-4-4-4-4-----4-4-4-4-4----------------|
PM . . . . .     . . . . .         . . . . .     . . . . .

E|------------------------------------------------------------------------|
B|------------------------------------------------------------------------|
G|------------------------------------------------------------------------|
D|------------------------------------------------------------------------|
A|------------------------------------------------------------------------|
E|-5-4-4-4-4-----4-4-4-4-4---------5-4-4-4-4-----4-4-4-4-4----------4-2-2-|
PM . . . . .     . . . . .         . . . . .     . . . . .          . . .

E|--------------------------------------------------------------------------|
B|--------------------------------------------------------------------------|
G|--------------------------------------------------------------------------|
D|--------------------------------------------------------------------------|
A|--------------------------------------------------------------------------|
E|-5-4-4-4-4-----4-4-4-4-4----4-2-2-------5-4-4-4-4------4-4-4-4-4----4-4-4-|
Pm . . . . .     . . . . .    . . .       . . . . .      . . . . .    . . .

E|--------------------------------------------------------------------------|
B|--------------------------------------------------------------------------|
G|--------------------------------------------------------------------------|
D|--------------------------------------------------------------------------|
A|--------------------------------------------------------------------------|
E|-5-4-4-4-4-----4-4-4-4-4----4-4-4-------5-4-4-4-4------4-4-4-4-4----4-4-4-|
Pm . . . . .     . . . . .    . . .       . . . . .      . . . . .    . . .

Verse:

E|------------------------------------------------------------------------|
B|------------------------------------------------------------------------|x7
G|------------------------------------------------------------------------|
D|------------------------------------------------------------------------|
A|------------------------------------------------------------------------|
E|-5-4-4-4-4-4-4-4-4------------4-4-4---------------4-4-------------------|
Pm . . . . . . . . .            . . .               . .

E|----------------------------------|
B|----------------------------------|
G|----------------------------------|
D|----------------------------------|
A|----------------------------------|
E|-4--------4-4-4--------2---5-4----|
PM .        . . .        .   . .

Pre Chorus:

E|-----------------------------------------------|
B|-----------------------------------------------|
G|-----------------------------------------------|
D|-2-------2------2-2-------2-------2-2--------2-|
A|-2-------2------2-2-------2-------2-2--------2-|
E|-2-------2------2-2-------2-------2-2--------2-|
PM .       .      . .       .       . .        .

Chorus:

E|------------------|        E|-------------------------------|
B|-9----------------|x3      B|-6-----------------------------|
G|-9-------------7--|        G|-6-----------------------------|
D|-7-------------7--|        D|-4-----------------------------|
A|---------------5--|        A|---------------7-6-6-7-6-6-7-6-|
E|------------------|        E|---------------7-6-6-7-6-6-7-6-|


This Is The HOLY WAR....... Part

E|--------------------------------------------------|
B|--------------------------------------------------|
G|--------------------------------------------------|
D|--------------------------------------------------|
A|--------------------------------------------------|
E|-1-----4-----3-2----------1-----4-3-----2-----1-1-|
PM                                              . .

E|---------------------------------------------------------|
B|---------------------------------------------------------|
G|---------------------------------------------------------|
D|----------------------------------------1----------------|
A|----------------------------------------1----------------|
E|-4-----3-----2-1---------4-----3-2------1-------------1--|
PM                                        .
            
Submit corrections

comments powered by Disqus
↑ Back to top | Fear Factory Tabs for Act Of God. Lyrics for acoustic guitar and electric guitar. Tablatures and chords are parodies/interpretations of the original songs. You may use it for private study, scholarship, research or language learning purposes only