>
 >
Acres Of Skin 1

Acres Of Skin 1 Bass Tabs

Fear Factory - Acres Of Skin 1 chords, tabs, tablatures, lyrics

Guitar lessons | Add/correct | Request | Top 50 tabs Artists:  A B C D E F G H I J K L M N O P Q R S T U V W X Y Z 0-9

Acres Of Skin 1 Bass Tabs – Fear Factory

CD, Sheet music, Poster

Do you like Acres Of Skin 1? Share with your friends now
Bass TabsBass Tabs v2Bass Tabs v3TabsTabs v2

ACRES OF SKIN (Bassline)
As recorded by Fear Factory
(From the 2001 Album DIGIMORTAL)

	

Words and Music by Mike Malatino

Gtr I (B E A D G) - 'Bass'
Gtr II (E A D G B E) - 'Vocals'
Gtr III (E A D G B E) - 'Keyboard'

  Moderately Q=120
 4/4
  Gtr I
  W          E E S S E H      E E S S E H
|----------|----------------|----------------|
|----------|----------------|----------------|
|----------|----------------|----------------|
|----------|----------------|----------------|
|----------|-4-3-2-3-2------|-4-3-2-3-2------|


                           \6
  E E S S E H      E E S S E. Q..
|----------------|------------------|
|----------------|------------------|
|----------------|---------4--------|
|----------------|------------------|
|-4-3-2-3-2------|-4-3-2-3----------|


    E E S S E T T S T T S T T S T T S   E E S S E T T S T T S T T S T T S
||------------------------------------|-----------------------------------|
||o-----------------------------------|-----------------------------------|
||------------------------------------|-----------------------------------|
||o-----------------------------------|-----------------------------------|
||--4-3-2-3-2-2-2-2-2-2-2-1-1-1-1-1-1-|-4-3-2-3-2-2-2-2-2-2-2-1-1-1-1-1-1-|


  E E S S E T T S T T S T T S T T S
|-----------------------------------|
|-----------------------------------|
|-----------------------------------|
|-----------------------------------|
|-4-3-2-3-2-2-2-2-2-2-2-1-1-1-1-1-1-|


  E E S S E E E S S E     E E S S E E E S S E
|----------------------||----------------------|
|---------------------o||----------------------|
|----------------------||----------------------|
|---------------------o||----------------------|
|-4-3-2-3-2-4-3-2-3-2--||-4-3-2-3-2-4-3-2-3-2--|


  E H..         H    E T T S S S S S
|-------------|----------------------|
|-------------|----------------------|
|-------------|----------------------|
|-------------|----------------------|
|-1-----------|----------1-1-1-1-1-1-|


  W          +Q.   +T  T S S S S S S S S S
|----------|-------------------------------|
|----------|-------------------------------|
|----------|-------------------------------|
|----------|-------------------------------|
|-1--------|-(1)---(1)-1-1-1-1-1-1-1-1-1-1-|


  S S S S S S S S S S S S S S S S   S S S  S S S S  S S S S S S S S S
|---------------------------------|------------------------------------|
|---------------------------------|------------------------------------|
|---------------------------------|------------------------------------|
|---------------------------------|------------------------------------|
|-2-2---2-2-2-2-2-2-2---2-2-2-2-2-|-2-2----2-2-2-2--2-2-2---2-2-2---2--|
|
| Gtr II
| H               Q       E   E     E   E.     S E.     S Q       E
|---------------------------------|------------------------------------|
|-2-------------------------------|------------------------------------|
|---------------------------------|------------------------------------|
|---------------------------------|------------------------------------|
|-4-----------------------4---4---|-4---4--------4--------4------------|
|---------------------------------|------------------------------------|


  S S S S S S S S S S S S S S S S   S S S  S S S   S S S S   S S S S S S
|---------------------------------|---------------------------------------|
|---------------------------------|---------------------------------------|
|---------------------------------|---------------------------------------|
|---------------------------------|---------------------------------------|
|-2-2---2-2-2-2-2-2-2---2-2-2-2-2-|-2-2----2-2-2---2-2-3-3---3-3-3-3-3-3--|
|
| H               Q       E   E     E   E.     Q         Q..
|---------------------------------|---------------------------------------|
|-2-------------------------------|---------------------------------------|
|---------------------------------|---------------------------------------|
|---------------------------------|---------------------------------------|
|-4-----------------------4---4---|-4---4------4b5------------------------|
|---------------------------------|---------------------------------------|


  S S S S S S S S S  S S S S S S S   S S S S S S S  S S S S S S S S S
|----------------------------------|-----------------------------------|
|----------------------------------|-----------------------------------|
|----------------------------------|-----------------------------------|
|----------------------------------|-----------------------------------|
|-2-2---2-2-2-2-2-2--2---2-2-2-2-2-|-2-2---2-2-2-2--2-2-2---2-2-2---2--|
|
| H               Q.           E     E   E   E   E.     S Q       E
|----------------------------------|-----------------------------------|
|-2--------------------------------|-----------------------------------|
|----------------------------------|-----------------------------------|
|----------------------------------|-----------------------------------|
|-4----------------------------4---|-4---4---4---4--------4------------|
|----------------------------------|-----------------------------------|


  S S S S S S S S S  S S S S S S S   S S S S S S S  S S S S S S S  S S
|----------------------------------|------------------------------------|
|----------------------------------|------------------------------------|
|----------------------------------|------------------------------------|
|----------------------------------|------------------------------------|
|-2-2---2-2-2-2-2-2--2---2-2-2-2-2-|-2-2---2-2-2-2--2-3-3-3-3-3-3--3-3--|
|
| H               Q.           E     E   E   E   E.     Q       E.
|----------------------------------|------------------------------------|
|-2--------------------------------|------------------------------------|
|----------------------------------|------------------------------------|
|----------------------------------|------------------------------------|
|-4----------------------------4---|-4---4---4---4----------------------|
|----------------------------------|------------------------------------|


   Q   Q  S S S S S S S S    Q   Q  S S S S S S S S
|-------------------------|-------------------------|
|-------------------------|-------------------------|
|-------------------------|-------------------------|
|-------------------------|-------------------------|
|-/5--/5--3-3-3-3-3-3-3-3-|-/5--/5--3-3-3-3-3-3-3-3-|


  S S S S S S S S S S S S S S S S   S S S S S S S  S S S S S S S S S
|---------------------------------|-----------------------------------|
|---------------------------------|-----------------------------------|
|---------------------------------|-----------------------------------|
|---------------------------------|-----------------------------------|
|-2-2---2-2-2-2-2-2-2---2-2-2-2-2-|-2-2---2-2-2-2--2-2-2---2-2-2---2--|
|
| Gtr II
| H               Q       E   E     E   E   E   E.     S Q       E
|---------------------------------|-----------------------------------|
|-2-------------------------------|-----------------------------------|
|---------------------------------|-----------------------------------|
|---------------------------------|-----------------------------------|
|-4-----------------------4---4---|-4---4---4---4--------4------------|
|---------------------------------|-----------------------------------|


  S S S S S S S S S S S S S S S S   S S S  S S S S     S S S S  S S S S S
|---------------------------------|----------------------------------------|
|---------------------------------|----------------------------------------|
|---------------------------------|----------------------------------------|
|---------------------------------|----------------------------------------|
|-2-2---2-2-2-2-2-2-2---2-2-2-2-2-|-2-2----2-2-2-2-----2-3-3-3--3-3-3-3-3--|
|
| H               Q       E   E     E   E.     S Q           Q.
|---------------------------------|----------------------------------------|
|-2-------------------------------|----------------------------------------|
|---------------------------------|----------------------------------------|
|---------------------------------|----------------------------------------|
|-4-----------------------4---4---|-4---4--------4b4.5---------------------|
|---------------------------------|----------------------------------------|


  S S S S S S S S S S S S S S S S   S S S S S S S  S S S S S S S S S
|---------------------------------|-----------------------------------|
|---------------------------------|-----------------------------------|
|---------------------------------|-----------------------------------|
|---------------------------------|-----------------------------------|
|-2-2---2-2-2-2-2-2-2---2-2-2-2-2-|-2-2---2-2-2-2--2-2-2---2-2-2---2--|
|
| H               Q       E   E     E   E   E   E.     S Q       E
|---------------------------------|-----------------------------------|
|-2-------------------------------|-----------------------------------|
|---------------------------------|-----------------------------------|
|---------------------------------|-----------------------------------|
|-4-----------------------4---4---|-4---4---4---4--------4------------|
|---------------------------------|-----------------------------------|


  S S S S S S S S S  S S S S S S S   S S S S S S S     S S S S  S S S S S
|----------------------------------|---------------------------------------|
|----------------------------------|---------------------------------------|
|----------------------------------|---------------------------------------|
|----------------------------------|---------------------------------------|
|-2-2---2-2-2-2-2-2--2---2-2-2-2-2-|-2-2---2-2-2-2-----2-3-3-3--3-3-3-3-3--|
|
| H               Q.           E     E   E   E   Q           Q.
|----------------------------------|---------------------------------------|
|-2--------------------------------|---------------------------------------|
|----------------------------------|---------------------------------------|
|----------------------------------|---------------------------------------|
|-4----------------------------4---|-4---4---4---4b4.5---------------------|
|----------------------------------|---------------------------------------|


   Q   Q  S S S S S S S S    Q   Q  S S S S S S S S    Q   Q  S S S S S S S S
|-------------------------|-------------------------|--------------------------|
|-------------------------|-------------------------|--------------------------|
|-------------------------|-------------------------|--------------------------|
|-------------------------|-------------------------|--------------------------|
|-/5--/5--3-3-3-3-3-3-3-3-|-/5--/5--3-3-3-3-3-3-3-3-|-/5--/5--3-3-3-3-3-3-3-3--|
|
|  Q   Q  H                  Q   Q  H                  Q   Q  H
|-------------------------|-------------------------|--------------------------|
|-------------------------|-------------------------|--------------------------|
|-------------------------|-------------------------|--------------------------|
|--2---2------------------|--2---2------------------|--2---2-------------------|
|-------------------------|-------------------------|--------------------------|
|-------------------------|-------------------------|--------------------------|


   Q   Q  S S S S S S S S    S E. S E. S S S S S S S S
|-------------------------||---------------------------|
|-------------------------||---------------------------|
|-------------------------||---------------------------|
|-------------------------||---------------------------|
|-/5--/5--3-3-3-3-3-3-3-3-||-4S5--5S8--3-3-3-3-3-3-3-3-|
|
|  Q   Q  H                  Q    Q    H
|-------------------------||---------------------------|
|-------------------------||---------------------------|
|-------------------------||------0--------------------|
|--2---2------------------||-2-------------------------|
|-------------------------||---------------------------|
|-------------------------||---------------------------|


  S E. S E. S S S S S S S S
|---------------------------|
|---------------------------|
|---------------------------|
|---------------------------|
|-4S5--5S8--3-3-3-3-3-3-3-3-|
|
| Q    Q    H
|---------------------------|
|---------------------------|
|---------------------------|
|-2----2--------------------|
|---------------------------|
|---------------------------|


  S E. S E. S S S S S S S S   S E. S E. S S S S S S S S
|---------------------------|---------------------------|
|---------------------------|---------------------------|
|---------------------------|---------------------------|
|---------------------------|---------------------------|
|-4S5--5S8--3-3-3-3-3-3-3-3-|-4S5--5S8--3-3-3-3-3-3-3-3-|
|
| Q    Q    H                 Q    Q    H
|---------------------------|---------------------------|
|---------------------------|---------------------------|
|-0-------------------------|-0-------------------------|
|------2--------------------|------2--------------------|
|---------------------------|---------------------------|
|---------------------------|---------------------------|


  E. E.     E E. E. E    E. E. E E. E. E
|----------------------|-----------------|
|----------------------|-----------------|
|----------------------|-----------------|
|-------------1--0-----|---------1--0----|
|-2--3------2----------|-2--3--2-------3-|
|
|        \1
|        ~~~
| Q     +Q    H          Q.    E E. E. E
|----------------------|------------0----|
|----------------------|-------2-2-----2-|
|----------------------|-----------------|
|----------------------|------------2----|
|-4-----(4)------------|-------4-4-----4-|
|----------------------|-----------------|


  E. E. E E. E.   E   E. E. E E. E. E
|-------------------|------------------|
|-------------------|------------------|
|-------------------|------------------|
|---------1--0------|---------1--0-----|
|-2--3--2-----------|-2--3--2-------3--|
|
| H.            Q     H       E. E. E
|-2-----------------|------------0-----|
|-------------------|---------2-----2--|
|-------------------|------------------|
|-4-----------------|------------2-----|
|-------------------|---------4-----4--|
|-------------------|------------------|


  E. E. E E. E.   E   E. E. E E. E. E
|-------------------|-----------------|
|-------------------|-----------------|
|-------------------|-----------------|
|---------1--0------|---------1--0----|
|-2--3--2-----------|-2--3--2-------3-|
|
| H.            Q     Q.    E E. E. E
|-2-----------------|-------2-2--2--2-|
|-------------------|-----------------|
|-------------------|-----------------|
|-4-----------------|-------4-4--4--4-|
|-------------------|-----------------|
|-------------------|-----------------|


  E. E. E  E.      E.                           E    E. E. E E. E.   E
|--------------------------------------------------|-------------------|
|--------------------------------------------------|-------------------|
|--------------------------------------------------|-------------------|
|----------1-------0-------------------------------|---------1--0------|
|-2--3--2------------------------------------------|-2--3--2---------3-|
|
|              \1______\1.5___/1___\1.5___\2.5
| H       +S  +E.     +T     +T   +T     +T    +E    H.            Q
|-2-------(2)-(2)-----(2)----(2)--(2)----(2)---(2)-|-------------------|
|--------------------------------------------------|-2-----------------|
|--------------------------------------------------|-------------------|
|-4-------(4)-(4)-----(4)----(4)--(4)----(4)---(4)-|-------------------|
|--------------------------------------------------|-4-----------------|
|--------------------------------------------------|-------------------|


  S S S S S S S S S S S S S S S S   S S S S S S S S S S S S S S S S
|---------------------------------|----------------------------------|
|---------------------------------|----------------------------------|
|---------------------------------|----------------------------------|
|---------------------------------|----------------------------------|
|-1-1---1-1-1-1-1-1-1---1-1-1-1-1-|-1-1---1-1-1-1-1-1-1---1-1-1---1--|


  S S S S S S S S S S S S S S S S   S S S S S S S S S S S S S S S S
|---------------------------------|----------------------------------|
|---------------------------------|----------------------------------|
|---------------------------------|----------------------------------|
|---------------------------------|----------------------------------|
|-1-1---1-1-1-1-1-1-1---1-1-1-1-1-|-1-1---1-1-1-1-1-1-1---1-1-1-1-1--|


  S S S S S S S S S S S S S S S S   S S S  S S S S  S S S S S S S S S
|---------------------------------|------------------------------------|
|---------------------------------|------------------------------------|
|---------------------------------|------------------------------------|
|---------------------------------|------------------------------------|
|-2-2---2-2-2-2-2-2-2---2-2-2-2-2-|-2-2----2-2-2-2--2-2-2---2-2-2---2--|
|
| Gtr II
| H               Q       E   E     E   E.     S E.     S Q       E
|---------------------------------|------------------------------------|
|-2-------------------------------|------------------------------------|
|---------------------------------|------------------------------------|
|---------------------------------|------------------------------------|
|-4-----------------------4---4---|-4---4--------4--------4------------|
|---------------------------------|------------------------------------|


  S S S S S S S S S  S S S S S S S   S S S S S S S S S  S S S S S S S
|----------------------------------|-----------------------------------|
|----------------------------------|-----------------------------------|
|----------------------------------|-----------------------------------|
|----------------------------------|-----------------------------------|
|-2-2---2-2-2-2-2-2--2---2-2-2-2-2-|-2-2---2-2-2-2-2-3--3-3-3-3-3-3-3--|
|
| H               Q.           E     E   E   E   E   E.     S Q
|----------------------------------|-----------------------------------|
|-2--------------------------------|-----------------------------------|
|----------------------------------|-----------------------------------|
|----------------------------------|-----------------0-----------------|
|-4----------------------------4---|-4---4---4-------------------------|
|----------------------------------|-----------------------------------|


  S S S S S S S S S  S S S S S S S   S S S S S S S  S S S S S S S S S
|----------------------------------|-----------------------------------|
|----------------------------------|-----------------------------------|
|----------------------------------|-----------------------------------|
|----------------------------------|-----------------------------------|
|-2-2---2-2-2-2-2-2--2---2-2-2-2-2-|-2-2---2-2-2-2--2-2-2---2-2-2---2--|
|
| H               Q.           E     E   E   E   E.     S Q       E
|----------------------------------|-----------------------------------|
|-2--------------------------------|-----------------------------------|
|----------------------------------|-----------------------------------|
|----------------------------------|-----------------------------------|
|-4----------------------------4---|-4---4---4---4--------4------------|
|----------------------------------|-----------------------------------|


  S S S S S S S S S  S S S S S S S   S S S S S S S     S S S S  S S S S S
|----------------------------------|---------------------------------------|
|----------------------------------|---------------------------------------|
|----------------------------------|---------------------------------------|
|----------------------------------|---------------------------------------|
|-2-2---2-2-2-2-2-2--2---2-2-2-2-2-|-2-2---2-2-2-2-----2-3-3-3--3-3-3-3-3--|
|
| H               Q.           E     E   E   E   Q           Q.
|----------------------------------|---------------------------------------|
|-2--------------------------------|---------------------------------------|
|----------------------------------|---------------------------------------|
|----------------------------------|---------------------------------------|
|-4----------------------------4---|-4---4---4---4b4.5---------------------|
|----------------------------------|---------------------------------------|


   Q   Q  S S S S S S S S    Q   Q  S S S S S S S S    Q   Q  S S S S S S S S
|-------------------------|-------------------------|--------------------------|
|-------------------------|-------------------------|--------------------------|

|-------------------------|-------------------------|--------------------------|
|-------------------------|-------------------------|--------------------------|
|-/5--/5--3-3-3-3-3-3-3-3-|-/5--/5--3-3-3-3-3-3-3-3-|-/5--/5--3-3-3-3-3-3-3-3--|
|
|  Q   Q  H                  Q   Q  H                  Q   Q  H
|-------------------------|-------------------------|--------------------------|
|-------------------------|-------------------------|--------------------------|
|-------------------------|-------------------------|--------------------------|
|--2---2------------------|--2---2------------------|--2---2-------------------|
|-------------------------|-------------------------|--------------------------|
|-------------------------|-------------------------|--------------------------|


   Q   Q  S S S S S S S S    S E. S E. S S S S S S S S
|-------------------------||---------------------------|
|-------------------------||---------------------------|
|-------------------------||---------------------------|
|-------------------------||---------------------------|
|-/5--/5--3-3-3-3-3-3-3-3-||-4S5--5S8--3-3-3-3-3-3-3-3-|
|
|  Q   Q  H                  Q    Q    H
|-------------------------||---------------------------|
|-------------------------||---------------------------|
|-------------------------||------0--------------------|
|--2---2------------------||-2-------------------------|
|-------------------------||---------------------------|
|-------------------------||---------------------------|


  S E. S E. S S S S S S S S
|---------------------------|
|---------------------------|
|---------------------------|
|---------------------------|
|-4S5--5S8--3-3-3-3-3-3-3-3-|
|
| Q    Q    H
|---------------------------|
|---------------------------|
|---------------------------|
|-2----2--------------------|
|---------------------------|
|---------------------------|


  S E. S E. S S S S S S S S   S E. S E. S S S S S S S S
|---------------------------|---------------------------|
|---------------------------|---------------------------|
|---------------------------|---------------------------|
|---------------------------|---------------------------|
|-4S5--5S8--3-3-3-3-3-3-3-3-|-4S5--5S8--3-3-3-3-3-3-3-3-|
|
| Q    Q    H                 Q    Q    H
|---------------------------|---------------------------|
|---------------------------|---------------------------|
|-0-------------------------|-0-------------------------|
|------2--------------------|------2--------------------|
|---------------------------|---------------------------|
|---------------------------|---------------------------|


  E. E.     E E. E. E    E. E. E E. E. E
|----------------------|-----------------|
|----------------------|-----------------|
|----------------------|-----------------|
|-------------1--0-----|---------1--0----|
|-2--3------2----------|-2--3--2-------3-|
|
|        \1
|        ~~~
| Q     +Q    H          Q.    E E. E. E
|----------------------|------------0----|
|----------------------|-------2-2-----2-|
|----------------------|-----------------|
|----------------------|------------2----|
|-4-----(4)------------|-------4-4-----4-|
|----------------------|-----------------|


  E. E. E E. E.   E   E. E. E E. E. E
|-------------------|------------------|
|-------------------|------------------|
|-------------------|------------------|
|---------1--0------|---------1--0-----|
|-2--3--2-----------|-2--3--2-------3--|
|
| H.            Q     H       E. E. E
|-2-----------------|------------0-----|
|-------------------|---------2-----2--|
|-------------------|------------------|
|-4-----------------|------------2-----|
|-------------------|---------4-----4--|
|-------------------|------------------|


  E. E. E E. E.   E   E. E. E E. E. E
|-------------------|-----------------|
|-------------------|-----------------|
|-------------------|-----------------|
|---------1--0------|---------1--0----|
|-2--3--2-----------|-2--3--2-------3-|
|
| H.            Q     Q.    E E. E. E
|-2-----------------|-------2-2--2--2-|
|-------------------|-----------------|
|-------------------|-----------------|
|-4-----------------|-------4-4--4--4-|
|-------------------|-----------------|
|-------------------|-----------------|


  E. E. E  E.      E.                           E    E. E. E E. E.   E
|--------------------------------------------------|-------------------|
|--------------------------------------------------|-------------------|
|--------------------------------------------------|-------------------|
|----------1-------0-------------------------------|---------1--0------|
|-2--3--2------------------------------------------|-2--3--2---------3-|
|
|              \1______\1.5___/1___\1.5___\2.5
| H       +S  +E.     +T     +T   +T     +T    +E    H.            Q
|-2-------(2)-(2)-----(2)----(2)--(2)----(2)---(2)-|-------------------|
|--------------------------------------------------|-2-----------------|
|--------------------------------------------------|-------------------|
|-4-------(4)-(4)-----(4)----(4)--(4)----(4)---(4)-|-------------------|
|--------------------------------------------------|-4-----------------|
|--------------------------------------------------|-------------------|


  W          W          W          H    H
|----------|----------|----------|-----------|
|----------|----------|----------|-----------|
|----------|----------|-1--------|-----------|
|-3--------|-4--------|----------|-1---------|
|----------|----------|----------|------4----|
|
| Gtr III
| W          W          W          H    H
|----------|----------|----------|-----------|
|----------|----------|----------|-----------|
|-0--------|-1--------|-3--------|-----------|
|----------|----------|----------|-3----1----|
|----------|----------|----------|-----------|
|----------|----------|----------|-----------|


  H.      Q    H.      Q    H.      Q    H    H
|------------|------------|------------|-----------|
|------------|------------|------------|-----------|
|------------|------------|-1-------1--|-----------|
|-3-------3--|-4-------4--|------------|-1---------|
|------------|------------|------------|------4----|
|
| W            W            W            H    H
|------------|------------|------------|-----------|
|------------|------------|------------|-----------|
|-0----------|-1----------|-3----------|-----------|
|------------|------------|------------|-3----1----|
|------------|------------|------------|-----------|
|------------|------------|------------|-----------|


  S S S S S S S S S S S  S S S S S   S S S S S S S S S S S  S S S S S
|----------------------------------|-----------------------------------|
|-5-5-5-5-5-5-5-5-5-5-5--5-5-5-5-5-|-6-6-6-6-6-6-6-6-6-6-6--6-6-6-6-6--|
|----------------------------------|-----------------------------------|
|----------------------------------|-----------------------------------|
|----------------------------------|-----------------------------------|
|
| Gtr II
| E   Q       Q       Q.             E   Q       Q       Q.
|-3---3-------3--------------------|-4---4-------4---------------------|
|----------------------------------|-----------------------------------|
|-0---0-------0--------------------|-1---1-------1---------------------|
|----------------------------------|-----------------------------------|
|----------------------------------|-----------------------------------|
|----------------------------------|-----------------------------------|


  S S S S S S S S S S S  S S S S S   S  S S S S S  S  S S  S S S S S S S
|-3-3-3-3-3-3-3-3-3-3-3--3-3-3-3-3-|--------------------------------------|
|----------------------------------|-3--3-3-3-3-3--3--3-1--1-1-1-1-1-1-1--|
|----------------------------------|--------------------------------------|
|----------------------------------|--------------------------------------|
|----------------------------------|--------------------------------------|
|
|                                                  \1
| E   Q       Q       Q.             Q.           +E    Q.           E
|-6---6-------6-------6------------|-6------------(6)---4-----------------|
|----------------------------------|--------------------------------------|
|-3---3-------3-------3------------|-3------------(3)---1-----------------|
|----------------------------------|--------------------------------------|
|----------------------------------|--------------------------------------|
|----------------------------------|--------------------------------------|


  S S S S S S S S S S S  S S S S S   S S S S S S S S S S S  S S S S S
|----------------------------------|-----------------------------------|
|-5-5-5-5-5-5-5-5-5-5-5--5-5-5-5-5-|-6-6-6-6-6-6-6-6-6-6-6--6-6-6-6-6--|
|----------------------------------|-----------------------------------|
|----------------------------------|-----------------------------------|
|----------------------------------|-----------------------------------|
|
| E   Q       Q       Q.             E   Q       Q       Q.
|-3---3-------3--------------------|-4---4-------4---------------------|
|----------------------------------|-----------------------------------|
|-0---0-------0--------------------|-1---1-------1---------------------|
|----------------------------------|-----------------------------------|
|----------------------------------|-----------------------------------|
|----------------------------------|-----------------------------------|


  S S S S S S S S S S S  S S S S S   S  S S S S S  S  S S  S S S S S S S
|----------------------------------|--------------------------------------|
|----------------------------------|--------------------------------------|
|-1-1-1-1-1-1-1-1-1-1-1--1-1-1-1-1-|--------------------------------------|
|----------------------------------|-1--1-1-1-1-1--1--1-------------------|
|----------------------------------|--------------------4--4-4-4-4-4-4-4--|
|
|                                                  \1
| E   Q       Q       Q.             Q.           +E    Q.           E
|-6---6-------6-------6------------|-6------------(6)---4-----------------|
|----------------------------------|--------------------------------------|
|-3---3-------3-------3------------|-3------------(3)---1-----------------|
|----------------------------------|--------------------------------------|
|----------------------------------|--------------------------------------|
|----------------------------------|--------------------------------------|


  E.   S S E   S S E    S S S S S   E.   S S E   S S E    S S S S S
|---------------------------------|---------------------------------|
|---------------------------------|---------------------------------|
|---------------------------------|---------------------------------|
|-3----3-3-3---3-3-3----3-3-3-3-3-|-4----4-4-4---4-4-4----4-4-4-4-4-|
|---------------------------------|---------------------------------|
|
| E  Q       Q       Q.             E  Q       Q       Q.
|---------------------------------|---------------------------------|
|---------------------------------|---------------------------------|
|-0--0-------0--------------------|-1--1-------1--------------------|
|---------------------------------|---------------------------------|
|---------------------------------|---------------------------------|
|-3--3-------3--------------------|-4--4-------4--------------------|


  E.   S S E   S S E    S S S S S
|-----------------------------------|
|-----------------------------------|
|-1----1-1-1---1-1-1----1-1-1-1-1---|
|-----------------------------------|
|-----------------------------------|
|
| E  Q       Q       Q.
|-----------------------------------|
|-----------------------------------|
|-3--3-------3----------------------|
|-----------------------------------|
|-----------------------------------|
|-6--6-------6----------------------|


  E.   S S S S S E.    S S S S S   E.   S S E   S S E    S S S S S
|--------------------------------|---------------------------------|
|--------------------------------|---------------------------------|
|--------------------------------|---------------------------------|
|-1----1-1-1-1-1-----------------|-3----3-3-3---3-3-3----3-3-3-3-3-|
|----------------4-----4-4-4-4-4-|---------------------------------|
|
| E  Q       Q      Q.             E  Q       Q       Q.
|--------------------------------|---------------------------------|
|--------------------------------|---------------------------------|
|-3--3-------3------1------------|-0--0-------0--------------------|
|--------------------------------|---------------------------------|
|--------------------------------|---------------------------------|
|-6--6-------6------4------------|-3--3-------3--------------------|


  E.   S S E   S S E    S S S S S
|---------------------------------|
|---------------------------------|
|---------------------------------|
|-4----4-4-4---4-4-4----4-4-4-4-4-|
|---------------------------------|
|
| E  Q       Q       Q.
|---------------------------------|
|---------------------------------|
|-1--1-------1--------------------|
|---------------------------------|
|---------------------------------|
|-4--4-------4--------------------|


  E.   S S E   S S E    S S S S S   E S S S S S S E E  E E
|---------------------------------|------------------------|
|---------------------------------|------------------------|
|-1----1-1-1---1-1-1----1-1-1-1-1-|------------------------|
|---------------------------------|-1-1-1-1-1-1-1----------|
|---------------------------------|---------------4-4--4-4-|
|
| E  Q       Q       Q.             E Q       Q     Q.
|---------------------------------|------------------------|
|---------------------------------|------------------------|
|-3--3-------3--------------------|-3-3-------3-----1------|
|---------------------------------|------------------------|
|---------------------------------|------------------------|
|-6--6-------6--------------------|-6-6-------6-----4------|


  E. E.     E E. E. E    E. E. E E. E. E
|----------------------|-----------------|
|----------------------|-----------------|
|----------------------|-----------------|
|-------------1--0-----|---------1--0----|
|-2--3------2----------|-2--3--2-------3-|
|
|        \1
|        ~~~
| Q     +Q    H          Q.    E E. E. E
|----------------------|------------0----|
|----------------------|-------2-2-----2-|
|----------------------|-----------------|
|----------------------|------------2----|
|-4-----(4)------------|-------4-4-----4-|
|----------------------|-----------------|


  E. E. E E. E.   E   E. E. E E. E. E
|-------------------|------------------|
|-------------------|------------------|
|-------------------|------------------|
|---------1--0------|---------1--0-----|
|-2--3--2-----------|-2--3--2-------3--|
|
| H.            Q     H       E. E. E
|-2-----------------|------------0-----|
|-------------------|---------2-----2--|
|-------------------|------------------|
|-4-----------------|------------2-----|
|-------------------|---------4-----4--|
|-------------------|------------------|


  E. E. E E. E.   E   E. E. E E. E. E   E. E. E E. E. E     E. E. E E. E. E
|-------------------|-----------------|-------------------|-------------------|
|-------------------|-----------------|-------------------|-------------------|
|-------------------|-----------------|-------------------|-------------------|
|---------1--0------|---------1--0----|---------1--0------|---------1--0------|
|-2--3--2-----------|-2--3--2-------3-|-2--3--2-----------|-2--3--2-------3---|
|
| H.            Q     Q.    E E. E. E   W                   W
|-2-----------------|-------2-2--2--2-|-2-----------------|-------------------|
|-------------------|-----------------|-------------------|-------------------|
|-------------------|-----------------|-------------------|-------------------|
|-4-----------------|-------4-4--4--4-|-4-----------------|-------------------|
|-------------------|-----------------|-------------------|-------------------|
|-------------------|-----------------|-------------------|-------------------|


  E. E.     E E. E. E    E. E. E E. E. E
|----------------------|-----------------|
|----------------------|-----------------|
|----------------------|-----------------|
|-------------1--0-----|---------1--0----|
|-2--3------2-------3--|-2--3--2-------3-|
|
|        \1
|        ~~~
| Q     +Q    H          Q.    E E. E. E
|----------------------|------------0----|
|----------------------|-------2-2-----2-|
|----------------------|-----------------|
|----------------------|------------2----|
|-4-----(4)------------|-------4-4-----4-|
|----------------------|-----------------|


  E. E. E E. E.   E   E. E. E E. E. E
|-------------------|--------------------|
|-------------------|--------------------|
|-------------------|--------------------|
|---------1--0------|---------1--0-------|
|-2--3--2---------3-|-2--3--2-------3----|
|
| H.            Q     H       E. E. E
|-2-----------------|------------0-------|
|-------------------|---------2-----2----|
|-------------------|--------------------|
|-4-----------------|------------2-------|
|-------------------|---------4-----4----|
|-------------------|--------------------|


  E. E. E E. E.   E   E. E. E E. E. E
|-------------------|-----------------|
|-------------------|-----------------|
|-------------------|-----------------|
|---------1--0------|---------1--0----|
|-2--3--2---------3-|-2--3--2-------3-|
|
| H.            Q     Q.    E E. E. E
|-2-----------------|-------2-2--2--2-|
|-------------------|-----------------|
|-------------------|-----------------|
|-4-----------------|-------4-4--4--4-|
|-------------------|-----------------|
|-------------------|-----------------|


  E. E. E  E.      E.                           E    E. E. E E. E.   E
|--------------------------------------------------|-------------------*|
|--------------------------------------------------|-------------------*|
|--------------------------------------------------|-------------------*|
|----------1-------0-------------------------------|---------1--0------*|
|-2--3--2---------------------------------------3--|-2--3--2---------3-*|
|
|              \1______\1.5___/1___\1.5___\2.5
| H       +S  +E.     +T     +T   +T     +T    +E    H.            Q
|-2-------(2)-(2)-----(2)----(2)--(2)----(2)---(2)-|-------------------*|
|--------------------------------------------------|-2-----------------*|
|--------------------------------------------------|-------------------*|
|-4-------(4)-(4)-----(4)----(4)--(4)----(4)---(4)-|-------------------*|
|--------------------------------------------------|-4-----------------*|
|--------------------------------------------------|-------------------*|



Duration Legend
---------------
W - whole; H - half; Q - quarter; E - 8th; S - 16th; T - 32nd; X - 64th; a - acciaccatura
+ - note tied to previous; . - note dotted; .. - note double dotted
Uncapitalized letters represent notes that are staccato (1/2 duration)
Irregular groupings are notated above the duration line
Duration letters will always appear directly above the note/fret number it represents the
duration for.  Duration letters with no fret number below them represent rests.  Multi-
bar rests are notated in the form Wxn, where n is the number of bars to rest for.  Low
melody durations appear below the staff

Tablature Legend
----------------
 h   - hammer-on
 p   - pull-off
 b   - bend
 pb  - pre-bend
 r   - bend release (if no number after the r, then release immediately)
 /\  - slide into or out of (from/to "nowhere")
 s   - legato slide
 S   - shift slide
 - natural harmonic
[n]  - artificial harmonic
n(n) - tapped harmonic
 ~   - vibrato
 tr  - trill
 T   - tap
 TP  - trem. picking
 PM  - palm muting
\n/  - tremolo bar dip; n = amount to dip
 \n  - tremolo bar down
 n/  - tremolo bar up
/n\  - tremolo bar inverted dip
 =   - hold bend; also acts as connecting device for hammers/pulls
 <> - volume swell (louder/softer)
 x   - on rhythm slash represents muted slash
 o   - on rhythm slash represents single note slash

Misc Legend
-----------
 |  - bar
||  - double bar
||o - repeat start
o|| - repeat end
*|  - double bar (ending)
 :  - bar (freetime)
 $  - Segno
 &  - Coda
Tempo markers -  = BPM(8/16=s8/s16), where s8 = swing 8ths, s16 = swing 16ths





Comments


Popular Fear Factory tabs & chords
Dog Day Sunrise 4 Bass Tabs
Edgecrusher 2 Bass Tabs
Self Bias Resistor Bass Tabs
A Therapy For Pain Tabs
Dark Bodies Tabs
Dead Man Walking Tabs
Fear Campaign Tabs
Linchpin Tabs
Repentance Tabs
Securitron Tabs


Song lyrics



↑ Back to top | Tablatures and chords are parodies/interpretations of the original songs. You may use it for private study, scholarship, research or language learning purposes only
© 2014 AZChords.com Contact us | Privacy policy | DMCA | Add/correct tabs | Request tabs | Top 50 tabs