>
 >
The Waiting Makes Me Curious

The Waiting Makes Me Curious Guitar Tabs

Fear Before The March Of Flames - The Waiting Makes Me Curious chords, tabs, tablatures, lyrics

Guitar lessons | Add/correct | Request | Top 50 tabs Artists:  A B C D E F G H I J K L M N O P Q R S T U V W X Y Z 0-9

The Waiting Makes Me Curious Guitar Tabs – Fear Before The March Of Flames

CD, Sheet music, Poster

Do you like The Waiting Makes Me Curious? Share with your friends now
Tabs
FEAR BEFORE THE MARCH OF FLAMES - THE WAITING MAKES ME CURIOUS
note:the different guitar parts might not be perfect but it splits it up for you.

D|----------------------|guitar 1
A|----------------------|
F|-5~-------4~-------2~-|
C|-6~-------5~-------3~-|
G|-5~-------5~-------3~-|
C|----------------------|

D|-----------------------|guitar 2
A|-----------------------|
F|-----------------------|
C|-----------------------|
G|-----------------------|
C|-3/6--6p5-9p5--5p3-7p3-|

D|--------------------------|guitar 3
A|--------------------------|
F|-55555/88\44444/77\22222~-|
C|--------------------------|
G|--------------------------|
C|--------------------------|

D|---------------------------------|guitar 3
A|---------------------------------|
F|-10\88888/1212\77777/1010\55555~-|
C|---------------------------------|
G|---------------------------------|
C|---------------------------------|

D|------------------------------------------9--8~------------|guitar 1
A|---9-11-12-11-9-11--9~-------9-11-12-11-9----------9999\88-|
F|-8-------------------------8-------------------------------|
C|-----------------------------------------------------------|
G|-----------------------------------------------------------|
C|-----------------------------------------------------------|

D|-------------------|guitar 2
A|-------------------|
F|------3-4-3--------|
C|-3/6~-------1-1/3~-|
G|-------------------|
C|-------------------|

D|---------------|guitar 3
A|------8--------|
F|-------8--5/10-|
C|---------------|
G|---------------|
C|---------------|

1:35
D|------------------|guitar 1
A|------------------|
F|------------------|
C|-9--99/10---10--5-|
G|-x--xx--x----x--x-|
C|-5--55/-6----6--1-|


D|--------------------------|guitar 2
A|-9--9--9--9--9--9--9--9---|
F|--10-10-10-10-10-10-10-10-|
C|--------------------------|
G|--------------------------|
C|--------------------------|
   . .. .. .. .. .. .. .. .

D|----|guitar 3
A|-6~-|
F|-5~-|
C|-x--|
G|-5~-|
C|----|

D|-------------------|guitar 1
A|-------------------|
F|-------------------|
C|-9--99/10----5/-77-|
G|-x--xx--x----x--xx-|
C|-5--55/-6----1/-33-|

D|---------------------|guitar 1
A|---------------------|
F|---------------------|
C|-9--99/10---10/-1414-|
G|-x--xx--x----x---x-x-|
C|-5--55/-6----6/-1010-|

D|-----------------------|guitar 1
A|-----------------------|
F|-----------------------|
C|-14--1414\-9---9/-1010-|
G|--x---x-x--x---x---x-x-|
C|-10--1010\-5---5/--6-6-|

D|----------------------|guitar 1
A|----------------------|
F|----------------------|
C|-5---5--4----5---7--4-|
G|-x---x--x----x---x--x-|
C|-1---1--0----1---3--0-|

D|-----------|guitar 1
A|-----------|
F|-----------|
C|-5---7--10-|
G|-x---x---x-|
C|-1---3---6-|

D|------------------------------------------------------------|guitar 1
A|------------------------------------------------------------|
F|---------------2--------------------------------------------|
C|-4-4-4------5--1----55555b5-55555b5-555-55555b5-55555b5-555-|
G|-0-0-0------1--1----55555b5-55555b5-555-55555b5-55555b5-555-|
C|-0-0-0------1--1----55555b5-55555b5-555-55555b5-55555b5-555-|

D|------------------------------------|guitar 2
A|------------------------------------|
F|-888888881010101010101010-(7777777)-|
C|-xxxxxxxx-x-x-x-x-x-x-x-x-(xxxxxxx)-|
G|-66666666-8-8-8-8-8-8-8-8-(5555555)-|
C|------------------------------------|

D|----------------|-------------|guitar 3
A|----------------|10*11108*15*-|
F|----------------|-------------|
C|-5*-7*-875*-12*-|-------------|
G|----------------|-------------|
C|----------------|-------------|

D|--------------------------------------------------------|piano
A|--3--4--------3--4----------3-------------3------78-4-3-|
F|-5--0---5--3----0----5--3--5-------5--3--5----5---------|
C|---0---5----05-0---57--5--5----5-57--5--5---57---7------|
G|------6-----------6---6--5----5-6---6--5---6---5~-------|
C|--------------------------------------------------------|





Comments


Popular Fear Before The March Of Flames tabs & chords
The God Awful Truth Bass Tabs
A Shoreline Perspective Tabs
A Tyrant Meets His Maker Tabs
Go Wash Your Mouth Tabs
Lisbon Girls Oh The Lisbon Girls 1 Tabs
Motelroom Grandpiano Tabs
Motelroom Grandpiano 1 Tabs
Mouth 1 Tabs
The Story Of The Curious Oysters Tabs
What Happens In Vegas, Stays In Vegas Tabs


Song lyrics



↑ Back to top | Tablatures and chords are parodies/interpretations of the original songs. You may use it for private study, scholarship, research or language learning purposes only
© 2014 AZChords.com Contact us | Privacy policy | DMCA | Add/correct tabs | Request tabs | Top 50 tabs