» » »

Fear Before The March Of Flames, The Story Of The Curious Oysters Tabs (ver.1)

Artists:  A B C D E F G H I J K L M N O P Q R S T U V W X Y Z # 

The Story Of The Curious Oysters Tabs (ver.1)

Fear Before The March Of Flames Tabs
 Rating:
4/5 (4 votes)
The Story Of The Curious Oysters lessons Tabs too difficult? Try these video lessons and learn fast
                -------------------------------------------------------------------------------
                 The Story of the Curious Oysters - Fear Before
-------------------------------------------------------------------------------



e|----------------------------------------------------|
B|----------------------------------------------------|
G|----------------------------------------------------|
D|--------6-----------6-----------6-----------6-------|
A|--5h7-----5---5h7-----5---5h7-----5---5h7-----5-----|
D|0-----0-----0-----0-----0-----0-----0-----0---------|

e|--------------------------------|
B|--------------------------------|
G|--------------------------------|
D|--9p0-6---------9p0-6-----------|
A|7-------------------------------|
D|--------2-0-6-5-------2-0-6-----|

e|----------------------------------------------------|
B|----------------------------------------------------|
G|----------------------------------------------------|
D|--------6-----------6-----------6-----------6-------|
A|--5h7-----5---5h7-----5---5h7-----5---5h7-----5-----|
D|0-----0-----0-----0-----0-----0-----0-----0---------|


e|--------------------------------|
B|--------------------------------|
G|--------------------------------|
D|--9p0-6---------9p0-6-----------|
A|7-------------------------------|
D|--------2-0-6-5-------2-0-6-----|


e|-----------------------------------------|
B|-----------------------------------------|
G|-----------------------------------------|
D|-----------9p0-6---------9p0-6-----------|
A|0-0-00-0-7-------------------------------|
D|0-0-00-0---------2-0-6-5-------2-0-6-----|

e|0~---------|
B|0~---------|
G|0~---------|
D|0~---------|
A|0~---------|
D|0~---------|

 x4
e|-----------|
B|-----------|
G|-----------|
D|-----------|
A|2-0-5------|
D|2-0-5------|

 x3 (0.42) 
e|----------------------------------------------------|
B|--6----------6-----------6--------------------------|
G|------6----------6-----------6----6p0-6p0-----------|
D|5---5----5-5---5----5--5---5----5---------5-6-3-----|
A|----------------------------------------------------|
D|----------------------------------------------------|

e|-------------|
B|-------------|
G|-------------|
D|3---5--------|
A|0-0-0-0------|
D|-------------|

 x2
e|-------------------------------------------------------|
B|--6-----------6-----------6----------------------------|
G|------6-----------6-----------6-----6p0-6p0------------|
D|5---5---6/--5---5---6/--5---5---6/----------5-6-3------|
A|-------------------------------------------------------|
D|-------------------------------------------------------|

 (1.05 - 1.13)
e|-------------|
B|-------------|
G|-------------|
D|-------------|
A|4p0----------|
D|----5p4------|


e|----------------------------------------------------|
B|----------------------------------------------------|
G|----------------------------------------------------|
D|--------6-----------6-----------6-----------6-------|
A|--5h7-----5---5h7-----5---5h7-----5---5h7-----5-----|
D|0-----0-----0-----0-----0-----0-----0-----0---------|

e|--------------------------------|
B|--------------------------------|
G|--------------------------------|
D|--9p0-6---------9p0-6-----------|
A|7-------------------------------|
D|--------2-0-6-5-------2-0-6-----|


e|----------------------------------------------------|
B|----------------------------------------------------|
G|----------------------------------------------------|
D|--------6-----------6-----------6-----------6-------|
A|--5h7-----5---5h7-----5---5h7-----5---5h7-----5-----|
D|0-----0-----0-----0-----0-----0-----0-----0---------|

e|--------------------------------|
B|--------------------------------|
G|--------------------------------|
D|--9p0-6---------9p0-6-----------|
A|7-------------------------------|
D|--------2-0-6-5-------2-0-6-----|


e|---------|
B|---------|
G|---------|
D|---------|
A|---------|
D|2--------|

 x4
e|-------------------------|
B|-------------------------|
G|-------------------------|
D|----7-----6--------------|
A|-------------------------|
D|444---444---9p0-4p0------|

e|---------------------------------------------------|
B|--------------3-4---------------3-4--/12-11-8------|
G|--------------6-7---------------6-7----------------|
D|-----------0------------------0--------------------|
A|-----------4------------------4----------------0---|
D|9p0-4p0--0---0-----9p0-4p0--0------------------0---|

 (2.00 - 2.08)
e|-------------|
B|-------------|
G|-------------|
D|-------------|
A|4p0----------|
D|----5p4------|

e|0~---------|
B|0~---------|
G|0~---------|
D|0~---------|
A|0~---------|
D|0~---------|

 x4
e|-----------|
B|-----------|
G|-----------|
D|-----------|
A|2-0-5------|
D|2-0-5------|
            
Submit corrections

comments powered by Disqus
↑ Back to top | Fear Before The March Of Flames Tabs for The Story Of The Curious Oysters. Lyrics for acoustic guitar and electric guitar. Tablatures and chords are parodies/interpretations of the original songs. You may use it for private study, scholarship, research or language learning purposes only