» » »

Fear Before The March Of Flames, The God Awful Truth Bass tabs (ver.1)

Artists:  A B C D E F G H I J K L M N O P Q R S T U V W X Y Z # 

The God Awful Truth Bass tabs (ver.1)

Fear Before The March Of Flames Tabs
Rating:
0/5 (0 votes)
The God Awful Truth lessons Tabs too difficult? Try these video lessons and learn fast
                Band: Fear Before The March Of Flames
Tuning: Drop D (DADG)

  Intro
Two measure rest then..			                     4x
||-------------|-------------|------------|----------------||
||o--------0-2-|-3-----3-3s5-|--------0-2-|-3--3-3-3-6----o||
||o------------|-------------|------------|---------------o||
||--3----------|-------------|-3----------|----------------||


   Verse
Six measure rest then..                                               4x
||-------------|------------|-------------------||
||o------------|------------|------------2--2--o||
||o-----3-5----|-----3-5----|-----3-5----------o||
||--0-0-----0--|-0-0-----0--|-0-0-----0---------||


   Guitar Break
||-------------|-------------|------------|----------------||
||o--------0-2-|-3-----3-3s5-|--------0-2-|-3--3-3-3-6----o||
||o------------|-------------|------------|---------------o||
||--3----------|-------------|-3----------|----------------||


   Verse          3x
||-------------||----------------------|
||o-----------o||----------------------|
||o-----------o||----------------------|
||--0-3-3------||-0-12-0-10-0-8-0-3-0--|


                                                                   
||-------------||-||-------------||-||------------------------||-||--------||
||o-----------o||-||o-----------o||-||o----------------------o||-||o------o||
||o-----------o||-||o-----------o||-||o----------------------o||-||o------o||
||--0-3-3------||-||--0-6-6------||-||--0-12-0-10-0-8-0-3-0---||-||--0-----||


   Bridge        7x                              3x
||-------------||---------------||-------------||
||o-----------o||---------------||o-----------o||
||o-8-7-8-7---o||-8-7-8-7-------||o-8-7-8-7---o||
||-------------||---------------||-------------||


                         3x
|---------||-------------||--------|
|---------||o-----------o||--------|
|-8-7-8-7-||o-8-7-8-7---o||-8-7----|
|---------||-------------||--------|

               8x                3x                        3x
||-------------||-||------------||---------||-------------||----------------|
||o-----------o||-||o----------o||---------||o-----------o||----------------|
||o-----------o||-||o-8-7-8-7--o||-8-7-8-7-||o-8-7-8-7---o||-8-7-8-7--------|
||--0-0-0-6-5--||-||------------||---------||-------------||---------0--0---|


   Breakdown
||--------------|-----2--------|-------------|----------3----||
||o-3-0-------0-|-3-0---0--/3--|-3-0-------0-|-3-3-3-3------o||
||o-------------|--------------|-------------|--------------o||
||------3--0----|--------------|-----3--0----|---------------||


               3x
||-------------||----------------------|-----|
||o-----------o||----------------------|-----|
||o-----------o||----------------------|-----|
||--0-3-3------||-0-12-0-10-0-8-0-3-0--|-----|


   Guitar Break
||-------------|-------------|------------|----------------||
||o--------0-2-|-3-----3-3s5-|--------0-2-|-3--3-3-3-6----o||
||o------------|-------------|------------|---------------o||
||--3----------|-------------|-3----------|----------------||


   Outro                                                 4x
||-------------|-------------|------------|----------------||
||o--------0-2-|-3-----3-3s5-|--------0-2-|-3--3-3-3-6----o||
||o------------|-------------|------------|---------------o||
||--3----------|-------------|-3----------|----------------||



|----------|------------|------------|--------*|
|----------|------------|------------|--------*|
|----------|------------|------------|--------*|
|-3--------|-(3)--------|-(3)--------|-(3)----*|
            
Submit corrections

comments powered by Disqus
↑ Back to top | Fear Before The March Of Flames Bass for The God Awful Truth. Lyrics for acoustic guitar and electric guitar. Tablatures and chords are parodies/interpretations of the original songs. You may use it for private study, scholarship, research or language learning purposes only