>
 >
The 20th Century Was Entirely Mine 1

The 20th Century Was Entirely Mine 1 Guitar Tabs

Fear Before The March Of Flames - The 20th Century Was Entirely Mine 1 chords, tabs, tablatures, lyrics

Guitar lessons | Add/correct | Request | Top 50 tabs Artists:  A B C D E F G H I J K L M N O P Q R S T U V W X Y Z 0-9

The 20th Century Was Entirely Mine 1 Guitar Tabs – Fear Before The March Of Flames

CD, Sheet music, Poster

Do you like The 20th Century Was Entirely Mine 1? Share with your friends now
TabsTabs v2
#------------------------------------------------------------------------------##

                       THE 20TH CENTURY WAS ENTIRELY MINE
                 As recorded by Fear Before The March Of Flames
                   (From the 2003 Album ODD HOW PEOPLE SHAKE)

Words and Music by Fear Before The March Of Flames
Arranged by Fear Before The March Of Flames

Gtr I (D A D G B E) - 'Dist. Left'
Gtr II (D A D G B E) - 'Dist. Right'
Gtr III (D A D G B E) - 'Clean Left'
Gtr IV (D A D G B E) - 'Clean Right'
Gtr V (D A D G B E) - 'Feedback & Effects'
Gtr VI (D A D G B E) - 'Overdub'

 "On the surface where.."
  Dancefight Q=173
  N.C.
 2/4    8/8
  Gtrs I, II
  H       E  E  E  E  E  E  E  E    E  E  E  E  E  E  E  E
|------|-------------------------|-------------------------|
|------|--9--9--9--9--9--9--9--9-|--9--9--9--9--9--9--9--9-|
|------|-12-12-12-12-12-12-12-12-|-12-12-12-12-12-12-12-12-|
|------|-------------------------|-------------------------|
|------|-------------------------|-------------------------|
|------|-------------------------|-------------------------|


  D5              N.C.
  PM------------|
  S S S S S S S S  E  E  E  E    E  E  E  E  q  Q
|------------------9--9--9--9-|--9--9--9--9--9-----|
|-----------------13-13-13-13-|-13-13-13-13-13-----|
|-----------------------------|--------------------|
|-----------------------------|--------------------|
|-0-0-0-0-0-0-0-0-------------|--------------------|
|-0-0-0-0-0-0-0-0-------------|--------------------|


  Slower Q=166                        Original Speed Q=173
  (F#m)                               N.C.
 4/4                                 8/8
  E E E E E E E E   E E E E E E E E    E  E  E  E  E  E  E  E
|-----------------|-----------------|-------------------------|
|-----------------|-----------------|--9--9--9--9--9--9--9--9-|
|-----------------|-----------------|-12-12-12-12-12-12-12-12-|
|-7-----7-----7-6-|-7-----7-----7---|-------------------------|
|---------4-4-----|---------4-4-----|-------------------------|
|---4-4-----------|---4-4-----------|-------------------------|


                            D5              N.C.
                            PM------------|
   E  E  E  E  E  E  E  E   S S S S S S S S  E  E  E  E    E  E  E  E  q  Q
|-------------------------|------------------9--9--9--9-|--9--9--9--9--9-------||
|--9--9--9--9--9--9--9--9-|-----------------13-13-13-13-|-13-13-13-13-13-------||
|-12-12-12-12-12-12-12-12-|-----------------------------|----------------------||
|-------------------------|-----------------------------|----------------------||
|-------------------------|-0-0-0-0-0-0-0-0-------------|----------------------||
|-------------------------|-0-0-0-0-0-0-0-0-------------|----------------------||


   "A diver descends.."
    Slower Q=166
    (F#m)
   4/4
    E E E E E E E E   E E E E E E E E   E E E E E E E E   E E E E E E E E
||------------------|-----------------|-----------------|-------------------||
||o-----------------|-----------------|-----------------|------------------o||
||------------------|-----------------|-----------------|-------------------||
||--7-----7-----7-6-|-7-----7-----7---|-7-----7-----7-6-|-7-----7-----7-----||
||o---------4-4-----|---------4-4-----|---------4-4-----|---------4-4------o||
||----4-4-----------|---4-4-----------|---4-4-----------|---4-4-------------||


 Bridge
  Slower Q=160
  G#b5             Ab5Eb5  G#b5             Ab5Eb5
  Gtr I
  h    h      h    Q  Q    h    h      h    Q  Q
|-----------|------------|-----------|------------|
|-----------|------------|-----------|------------|
|-7----7----|-7----8-----|-7----7----|-7----8-----|
|-6----6----|-6----7--8--|-6----6----|-6----7--8--|
|-----------|---------7--|-----------|---------7--|
|-----------|------------|-----------|------------|


  G#b5             Ab5Eb5  G#b5             Ab5Eb5  N.C.
  Gtr I
  h    h      h    Q  Q    h    h      h    Q  Q    W
|-----------|------------|-----------|------------|------||
|-----------|------------|-----------|------------|------||
|-7----7----|-7----8-----|-7----7----|-7----8-----|------||
|-6----6----|-6----7--8--|-6----6----|-6----7--8--|------||
|-----------|---------7--|-----------|---------7--|------||
|-----------|------------|-----------|------------|------||
|
| Gtr II
| h    h      h    Q  Q    h    h      h    Q  Q    W
|-----------|------------|-----------|------------|------||
|-----------|------------|-----------|------------|------||
|-----------|------8-----|-----------|------8-----|------||
|-6----6----|-6----7--8--|-6----6----|-6----7--8--|------||
|-5----5----|-5-------7--|-5----5----|-5-------7--|------||
|-----------|------------|-----------|------------|------||


 "Hey, did no one tell you?"
  (Bbb5)  (Asus4)   (Bbb5)  (Asus4)   (Bbb5)  (Asus4)   (Bbb5)  (Asus4)
  Gtrs I, II
  E. E. E E. E. E   E. E. E E. E. E   E. E. E E. E. E   E. E. E E. E. E
|-----------------|-----------------|-----------------|-----------------||
|-----------------|-----------------|-----------------|-----------------||
|-----------------|-----------------|-----------------|-----------------||
|-----------------|-----------------|-----------------|-----------------||
|-7-----7-5-----5-|-7-----7-5-----5-|-7-----7-5-----5-|-7-----7-5-----5-||
|----8-------7----|----8-------7----|----8-------7----|----8-------7----||


   "They are so quickly.."
    Ebb5
    Gtr I
    E. E. E E.   E.   E   E. E. E E.   E.   E
||----------------------|---------------------|
||o---------------------|---------------------|
||----------------------|---------------------|
||----------------------|---------------------|
||o-7-----7-5---------5-|-7-----7-5---------5-|
||-----8---------7------|----8---------7------|
|
|   Gtr II
|   E. E. E E  E    E E   E. E. E E  E    E E
||----------------------|---------------------|
||o---------------------|---------------------|
||--8--8--8----8----8-8-|-8--8--8----8----8-8-|
||--7--7--7----7----7-7-|-7--7--7----7----7-7-|
||o-6--6--6----6----6-6-|-6--6--6----6----6-6-|
||----------------------|---------------------|


  E. E. E E.   E.   E   E. E. E E.   E.   E
|---------------------|-----------------------||
|---------------------|----------------------o||
|---------------------|-----------------------||
|---------------------|-----------------------||
|-7-----7-5---------5-|-7-----7-5---------5--o||
|----8---------7------|----8---------7--------||
|
| E. E. E E  E    E E   E. E. E E  E    E E
|---------------------|-----------------------||
|---------------------|----------------------o||
|-8--8--8----8----8-8-|-8--8--8----8----8-8---||
|-7--7--7----7----7-7-|-7--7--7----7----7-7---||
|-6--6--6----6----6-6-|-6--6--6----6----6-6--o||
|---------------------|-----------------------||


 "How many will you take.."
  Bbb5                        N.C.     Bbb5
  E. E. E E E E E   E. E. E E E  E E   E. E. E E E E E   E. E. E E E E E
|-----------------|------------------|-----------------|-----------------|
|-----------------|------------------|-----------------|-----------------|
|-----------------|------------------|-----------------|-----------------|
|-7--7--7---7-7-7-|-7--7--7---7--7-7-|-7--7--7---7-7-7-|-7--7--7---7-7---|
|-7--7--7---7-7-7-|-7--7--7---7--7-7-|-7--7--7---7-7-7-|-7--7--7---7-7---|
|-7--7--7---7-7-7-|-7--7--7---7--7-7-|-7--7--7---7-7-7-|-7--7--7---7-7---|
|
| E. E. E E E E E   E. E. E E Q.       E. E. E E E E E   E. E. E E E E E
|-----------------|-----------8\-----|-----------------|-----------------|
|-----------------|------------------|-----------------|-----------------|
|-----------------|------------------|-----------------|-----------------|
|-8--8--8---8-8-8-|-8--8--8----------|-8--8--8---8-8-8-|-8--8--8---8-8---|
|-7--7--7---7-7-7-|-7--7--7----------|-7--7--7---7-7-7-|-7--7--7---7-7---|
|-8--8--8---8-8-8-|-8--8--8----------|-8--8--8---8-8-8-|-8--8--8---8-8---|


  Ebb5                                                         D5
  E. E. E E Q  E   E. E. E E Q  E   E. E. E E Q  E   E. E. E E Q  E
|----------------|----------------|----------------|----------------||
|----------------|----------------|----------------|----------------||
|-8--8--8---8--8-|-8--8--8---8--8-|-8--8--8---8--8-|-8--8--8--------||
|-7--7--7---7--7-|-7--7--7---7--7-|-7--7--7---7--7-|-7--7--7---0--0-||
|-6--6--6---6--6-|-6--6--6---6--6-|-6--6--6---6--6-|-6--6--6---0--0-||
|----------------|----------------|----------------|-----------0--0-||
|
| E. E. E H        E. E. E H        E. E. E H        E. E. E E Q  E
|----------------|----------------|----------------|----------------||
|----------------|----------------|----------------|----------------||
|-8--8--8--------|-8--8--8--------|-8--8--8--------|-8--8--8--------||
|-7--7--7--------|-7--7--7--------|-7--7--7--------|-7--7--7---0--0-||
|-6--6--6--------|-6--6--6--------|-6--6--6--------|-6--6--6---0--0-||
|----------------|----------------|----------------|-----------0--0-||


   "So when your insides.."
    Ebb5      D5     Ebb5                      D5     (Bbb5)  (Asus4)
    E. E. E E Q  E   H.      S  E.   E. E. E E Q  E   E. E. E E. E. E   3x
||-----------------|---------------|----------------|-------------------||
||o----------------|---------------|----------------|------------------o||
||--8--8--8--------|-8s=====(2)s8--|-8--8--8--------|-------------------||
||--7--7--7---0--0-|-7s=====(1)s7--|-7--7--7---0--0-|-------------------||
||o-6--6--6---0--0-|-6s=====(0)s6--|-6--6--6---0--0-|-7-----7-5-----5--o||
||------------0--0-|---------------|-----------0--0-|----8-------7------||
|
|   E. E. E E Q  E   W               E. E. E E Q  E   E. E. E E. E. E   3x
||-----------------|---------------|----------------|-------------------||
||o----------------|---------------|----------------|------------------o||
||--8--8--8--------|-8-------------|-8--8--8--------|-------------------||
||--7--7--7---0--0-|-7-------------|-7--7--7---0--0-|-------------------||
||o-6--6--6---0--0-|-6-------------|-6--6--6---0--0-|-7-----7-5-----5--o||
||------------0--0-|---------------|-----------0--0-|----8-------7------||


 Interlude
  Fsus4                                 N.C.
  Gtr III
  PM-----------------------------------------------------------------------|
  E E E E E E E E    E  E E E E E E E   E E E E E E E E     E  E E E E E E E
|-----------------|-------------------|-----------------|--------------------|
|-----------------|-------------------|-----------------|--------------------|
|-----------------|-------------------|-----------------|--------------------|
|-----------------|-------------------|-----------------|--------------------|
|-4-1-4-1-4-1-4-1-|--4--1-4-1-4-1-4-1-|-4-0-4-0-4-0-4-0-|---4--0-4-0-4-0-4-0-|
|-----------------|-------------------|-----------------|--------------------|
|
| Gtr II
| >                                     >
| W                 +W                  W                  +W
|-----------------|-------------------|-----------------|--------------------|
|-----------------|-------------------|-----------------|--------------------|
|-----------------|-------------------|-----------------|--------------------|
|-8---------------|-(8)---------------|-7---------------|--(7)---------------|
|-8---------------|-(8)---------------|-----------------|--------------------|
|-----------------|-------------------|-----------------|--------------------|
|
| Gtr V
|                                                           <
| W                  W                  W                   W
|-----------------|-------------------|-----------------|--------------------|
|-----------------|-------------------|-----------------|--------------------|
|-----------------|-------------------|-----------------|-[10]---------------|
|-----------------|-------------------|-----------------|--------------------|
|-----------------|-------------------|-----------------|--------------------|
|-----------------|-------------------|-----------------|--------------------|


  Fsus4                                 Esus4
  PM-----------------------------------------------------------------------|
  E E E E E E E E    E  E E E E E E E   E E E E E E E E     E  E E E E E E E
|-----------------|-------------------|-----------------|--------------------|
|-----------------|-------------------|-----------------|--------------------|
|-----------------|-------------------|-----------------|--------------------|
|-----------------|-------------------|-----------------|--------------------|
|-4-1-4-1-4-1-4-1-|--4--1-4-1-4-1-4-1-|-4-0-4-0-4-0-4-0-|---4--0-4-0-4-0-4-0-|
|-----------------|-------------------|-----------------|--------------------|
|
| >                                     >
| W                 +W                  W                  +W
|-----------------|-------------------|-----------------|--------------------|
|-----------------|-------------------|-----------------|--------------------|
|-----------------|-------------------|-----------------|--------------------|
|-8---------------|-(8)---------------|-7---------------|--(7)---------------|
|-8---------------|-(8)---------------|-7---------------|--(7)---------------|
|-----------------|-------------------|-----------------|--------------------|
|
|                                                           <
| W                  W                  W                   W
|-----------------|-------------------|-----------------|--------------------|
|-----------------|-------------------|-----------------|--------------------|
|-----------------|-------------------|-----------------|-[10]---------------|
|-----------------|-------------------|-----------------|--------------------|
|-----------------|-------------------|-----------------|--------------------|
|-----------------|-------------------|-----------------|--------------------|


  N.C.
  Gtr III
  PM-------------------------------------
  E E E E E E E E   E E E E E  E    E E
|-----------------|---------------------|
|-----------------|---------------------|
|-----------------|---------------------|
|-----------------|---------------------|
|-4-1-4-1-4-1-4-1-|-4-1-4-1-4--1----4-1-|
|-----------------|---------------------|
|
| Gtr IV
| W                 H       E.   E.   E
|-----------------|---------------------|
|-----------------|---------------------|
|-----------------|---------------------|
|-----------------|---------8----8----8-|
|-----------------|---------------------|
|-----------------|---------------------|


 -----------------------------------------|
  E E E E E  E    E E   E E E E E  E    E E
|---------------------|----------------------|
|---------------------|----------------------|
|---------------------|----------------------|
|---------------------|----------------------|
|-4-0-4-0-4--0----4-0-|-4-0-4-0-4--0----4-0--|
|---------------------|----------------------|
|
| H       E.   E.   E   H       E.   E.   E
|---------------------|----------------------|
|---------------------|----------------------|
|---------------------|----------------------|
|---------7----7----7-|---------7----7----7--|
|---------------------|----------------------|
|---------------------|----------------------|


  N.C.
  PM-----------------------------------------
  E E E E E  E    E E   E E E E E  E    E E
|---------------------|---------------------|
|---------------------|---------------------|
|---------------------|---------------------|
|---------------------|---------------------|
|-4-1-4-1-4--1----4-1-|-4-1-4-1-4--1----4-1-|
|---------------------|---------------------|
|
| H       E.   E.   E   H       E.   E.   E
|---------------------|---------------------|
|---------------------|---------------------|
|---------------------|---------------------|
|---------8----8----8-|---------8----8----8-|
|---------------------|---------------------|
|---------------------|---------------------|


 -----------------------------------------|
  E E E E E  E    E E   E E E E E  E    E E
|---------------------|---------------------|
|---------------------|---------------------|
|---------------------|---------------------|
|---------------------|---------------------|
|-4-0-4-0-4--0----4-0-|-4-0-4-0-4--0----4-0-|
|---------------------|---------------------|
|
| H       E.   E.   E   H       E.   E.   E
|---------------------|---------------------|
|---------------------|---------------------|
|---------------------|---------------------|
|---------7----7----7-|---------7----7----7-|
|---------------------|---------------------|
|---------------------|---------------------|


    N.C.
    Gtr III
    PM--------------------------------------------------------------------|
    E E E E  E E E E   E E E E E E E E   E E E E  E E E E   E E E E E E E E   3x
||-------------------|-----------------|------------------|-------------------||
||o------------------|-----------------|------------------|------------------o||
||-------------------|-----------------|------------------|-------------------||
||-------------------|-----------------|------------------|-------------------||
||o-4-1-4-1--4-1-4-1-|-4-1-4-1-4-1-4-1-|-4-0-4-0--4-0-4-0-|-4-0-4-0-4-0-4-0--o||
||-------------------|-----------------|------------------|-------------------||
|
|   Gtr IV
|   Q   Q    Q   Q     Q   Q   Q   Q     Q   Q    Q   Q     Q   Q   Q   Q     3x
||-------------------|-----------------|------------------|-------------------||
||o------------------|-----------------|------------------|------------------o||
||-------------------|-----------------|------------------|-------------------||
||--8---8----8---8---|-8---8---8---8---|-7---7----7---7---|-7---7---7---7-----||
||o------------------|-----------------|------------------|------------------o||
||-------------------|-----------------|------------------|-------------------||
|
|   Gtr VI
|   E E E Q.     E E   E E E E E E Q     E E E Q.     E E   E E E E E E Q     3x
||-------------------|-----------------|------------------|-------------------||
||o------------------|-----------------|------------------|------------------o||
||-------------------|-----------------|------------------|-------------------||
||------5------------|-5-------5-------|-----4------------|-4-------4---------||
||o-1-4----------1-4-|-----1-4---4-----|-1-4----------1-4-|-----1-4---4------o||
||-------------------|-----------------|------------------|-------------------||


  N.C.
  PM-------------------------------------------------------------|
  E E E E  E E E E   E E E E E E E E    E E  E E E E E E   E E E E H
|------------------|-----------------|-------------------|--------------||
|------------------|-----------------|-------------------|--------------||
|------------------|-----------------|-------------------|--------------||
|------------------|-----------------|-------------------|--------------||
|-4-1-4-1--4-1-4-1-|-4-1-4-1-4-1-4-1-|--4-0--4-0-4-0-4-0-|-4-0-4-0------||
|------------------|-----------------|-------------------|--------------||
|
| Q   Q    Q   Q     Q   Q   Q   Q      Q    Q   Q   Q     Q   Q   H
|------------------|-----------------|-------------------|--------------||
|------------------|-----------------|-------------------|--------------||
|------------------|-----------------|-------------------|--------------||
|-8---8----8---8---|-8---8---8---8---|-10---10---7---7---|-7---7--------||
|------------------|-----------------|-------------------|--------------||
|------------------|-----------------|-------------------|--------------||
|
| E E E Q.     E E   E E E E E E Q      E E  E E E E E E   E E E E H
|------------------|-----------------|-------------------|--------------||
|------------------|-----------------|-------------------|--------------||
|------------------|-----------------|-------------------|--------------||
|-----5------------|-5-------5-------|-------4---4---4---|-4---4--------||
|-1-4----------1-4-|-----1-4---4-----|--1-4----4---4---4-|---4---4------||
|------------------|-----------------|-------------------|--------------||


 *Breakdown*
  Original Speed Q=173
 8/8
  Gtrs I, II
   E  E  E  E  E  E  E  E    E  E  E  E  E  E  E  E
|-------------------------|-------------------------|
|--9--9--9--9--9--9--9--9-|--9--9--9--9--9--9--9--9-|
|-12-12-12-12-12-12-12-12-|-12-12-12-12-12-12-12-12-|
|-------------------------|-------------------------|
|-------------------------|-------------------------|
|-------------------------|-------------------------|


  PM------------|
  S S S S S S S S  E  E  E  E    E  E  E  E  Q   Q
|------------------9--9--9--9-|--9--9--9--9--9---9---|
|-----------------13-13-13-13-|-13-13-13-13-13--13---|
|-----------------------------|----------------------|
|-----------------------------|----------------------|
|-0-0-0-0-0-0-0-0-------------|----------------------|
|-0-0-0-0-0-0-0-0-------------|----------------------|


   E  E  E  E  E  E  E  E    E  E  E  E  E  E  E  E
|-------------------------|-------------------------|
|--9--9--9--9--9--9--9--9-|--9--9--9--9--9--9--9--9-|
|-12-12-12-12-12-12-12-12-|-12-12-12-12-12-12-12-12-|
|-------------------------|-------------------------|
|-------------------------|-------------------------|
|-------------------------|-------------------------|


                               10/8
  PM------------|
  S S S S S S S S  E  E  E  E    E  E  E  E  E  E  E  E  q
|------------------9--9--9--9-|--9--9--9--9--9--9--9--9--9---||
|-----------------13-13-13-13-|-13-13-13-13-13-13-13-13-13---||
|-----------------------------|------------------------------||
|-----------------------------|------------------------------||
|-0-0-0-0-0-0-0-0-------------|------------------------------||
|-0-0-0-0-0-0-0-0-------------|------------------------------||


 Guitar Break
  Slower Q=160
  N.C.
 4/4
  Gtr III
  PM------------------------------------------------------------------|
  E E E E E E E E   E E E E E E E E   E E E E E E E E   E E E E E E E E
|-----------------|-----------------|-----------------|-----------------|
|-----------------|-----------------|-----------------|-----------------|
|-----------------|-----------------|-----------------|-----------------|
|-----------------|-----------------|-----------------|-----------------|
|-4-1-4-1-4-1-4-1-|-4-1-4-1-4-1-4-1-|-4-0-4-0-4-0-4-0-|-4-0-4-0-4-0-4-0-|
|-----------------|-----------------|-----------------|-----------------|


  N.C.
                                                                Gtr II
                                                                  <
  PM----------------------------------------------------------|
  E E E E E E E E   E E E E E E E E   E E E E E E E E   E E E E   E   +Q.
|-----------------|-----------------|-----------------|---------[10]-(10)---||
|-----------------|-----------------|-----------------|---------------------||
|-----------------|-----------------|-----------------|---------------------||
|-----------------|-----------------|-----------------|---------------------||
|-4-1-4-1-4-1-4-1-|-4-1-4-1-4-1-4-1-|-4-0-4-0-4-0-4-0-|-4-0-4-0-------------||
|-----------------|-----------------|-----------------|---------------------||


 "On the surface where.."
  Original Speed Q=173
  N.C.
 8/8
  Gtrs I, II
   E  E  E  E  E  E  E  E    E  E  E  E  E  E  E  E
|-------------------------|-------------------------|
|--9--9--9--9--9--9--9--9-|--9--9--9--9--9--9--9--9-|
|-12-12-12-12-12-12-12-12-|-12-12-12-12-12-12-12-12-|
|-------------------------|-------------------------|
|-------------------------|-------------------------|
|-------------------------|-------------------------|


  D5              N.C.
  PM------------|
  S S S S S S S S  E  E  E  E    E  E  E  E  q  Q
|------------------9--9--9--9-|--9--9--9--9--9------||
|-----------------13-13-13-13-|-13-13-13-13-13------||
|-----------------------------|---------------------||
|-----------------------------|---------------------||
|-0-0-0-0-0-0-0-0-------------|---------------------||
|-0-0-0-0-0-0-0-0-------------|---------------------||


   "A diver descends.."
    Slower Q=166
    (F#m)
   4/4
    E E E E E E E E   E E E E E E E E   E E E E E E E E   E E E E E E E E
||------------------|-----------------|-----------------|-------------------||
||o-----------------|-----------------|-----------------|------------------o||
||------------------|-----------------|-----------------|-------------------||
||--7-----7-----7-6-|-7-----7-----7---|-7-----7-----7-6-|-7-----7-----7-----||
||o---------4-4-----|---------4-4-----|---------4-4-----|---------4-4------o||
||----4-4-----------|---4-4-----------|---4-4-----------|---4-4-------------||


 Bridge
  Slower Q=160
  G#b5             Ab5Eb5  G#b5             Ab5Eb5
  Gtr I
  h    h      h    Q  Q    h    h      h    Q  Q
|-----------|------------|-----------|------------||
|-----------|------------|-----------|------------||
|-7----7----|-7----8-----|-7----7----|-7----8-----||
|-6----6----|-6----7--8--|-6----6----|-6----7--8--||
|-----------|---------7--|-----------|---------7--||
|-----------|------------|-----------|------------||
|
| Gtr II
| W           W            h    h      h    Q  Q
|-----------|------------|-----------|------------||
|-----------|------------|-----------|------------||
|-----------|------------|-----------|------8-----||
|-----------|------------|-6----6----|-6----7--8--||
|-----------|------------|-5----5----|-5-------7--||
|-----------|------------|-----------|------------||


 "We knew you didn't.."
  Db5              EbbBbb5 Db5              EbbBbb5
  Gtrs I, II
  h    h      h    Q  Q    h    h      h    Q  Q
|-----------|------------|-----------|------------||
|-----------|------------|-----------|------------||
|-7----7----|-7----8-----|-7----7----|-7----8-----||
|-6----6----|-6----7--8--|-6----6----|-6----7--8--||
|-5----5----|-5----6--7--|-5----5----|-5----6--7--||
|-----------|---------8--|-----------|---------8--||


 Chaotic Outro
  Db5
  Gtrs I, II
   h                 h
|-------------------------------------------|
|-------------------------------------------|
|--7-----------------7----------------------|
|--6-----------------6----------------------|
|--5-----------------5----------------------|
|-------------------------------------------|
|
| Gtr V
|  TPTPTPTPTPTPTP TP TP TP TP TP TP TP TP TP
|  S S S S S S S  S  S  S  S  S  S  S  S  S
|-/3S4S5S6S7S8S9S10S11S12S13S14S15S16S17S18S|
|-------------------------------------------|
|-------------------------------------------|
|-------------------------------------------|
|-------------------------------------------|
|-------------------------------------------|


                          Ebb5    Bbb5
   h                      Q       Q
|------------------------------------------|
|------------------------------------------|
|--7----------------------8----------------|
|--6----------------------7-------8--------|
|--5----------------------6-------7--------|
|---------------------------------8--------|
|
|  TP TP TP TP TP TP TP TPTPTPTPTPTPTPTPTP
|  S  S  S  S  S  S  S  S S S S S S S S S
|-17-16S15S14S13S12S11S10S9S8S7S6S5S4S3S2\-|
|------------------------------------------|
|------------------------------------------|
|------------------------------------------|
|------------------------------------------|
|------------------------------------------|


  Db5
    h                        h
|---------------------------------------------------|
|---------------------------------------------------|
|---7------------------------7----------------------|
|---6------------------------6----------------------|
|---5------------------------5----------------------|
|---------------------------------------------------|
|
|   TP TP TP TP TP TP TP TP  TP TP TP TP TP TP TP TP
|   S  S  S  S  S  S  S  S   S  S  S  S  S  S  S  S
|-/17S16S15S14S13S12S11S10-/17S16S15S14S13S12S11S10-|
|---------------------------------------------------|
|---------------------------------------------------|
|---------------------------------------------------|
|---------------------------------------------------|
|---------------------------------------------------|


                           Ebb5    Bbb5       N.C.
    h                      Q       Q          W
|-------------------------------------------|------*|
|-------------------------------------------|------*|
|---7----------------------8----------------|------*|
|---6----------------------7-------8--------|------*|
|---5----------------------6-------7--------|------*|
|----------------------------------8--------|------*|
|
|   TP TP TP TP TP TP TP TPTPTPTPTPTPTPTPTP
|   S  S  S  S  S  S  S  S S S S S S S S S    W
|-/17S16S15S14S13S12S11S10S9S8S7S6S5S4S3S2\-|------*|
|-------------------------------------------|------*|
|-------------------------------------------|------*|
|-------------------------------------------|------*|
|-------------------------------------------|------*|
|-------------------------------------------|------*|


Duration Legend
---------------
W - whole; H - half; Q - quarter; E - 8th; S - 16th; T - 32nd; X - 64th; a - acciaccatura
+ - note tied to previous; . - note dotted; .. - note double dotted
Uncapitalized letters represent notes that are staccato (1/2 duration)
Irregular groupings are notated above the duration line
Duration letters will always appear directly above the note/fret number it represents the
duration for.  Duration letters with no fret number below them represent rests.  Multi-
bar rests are notated in the form Wxn, where n is the number of bars to rest for.  Low
melody durations appear below the staff

Tablature Legend
----------------
 h   - hammer-on
 p   - pull-off
 b   - bend
 pb  - pre-bend
 r   - bend release (if no number after the r, then release immediately)
 /\  - slide into or out of (from/to "nowhere")
 s   - legato slide
 S   - shift slide
  - natural harmonic
[n]  - artificial harmonic
n(n) - tapped harmonic
 ~   - vibrato
 tr  - trill
 T   - tap
 TP  - trem. picking
 PM  - palm muting
\n/  - tremolo bar dip; n = amount to dip
 \n  - tremolo bar down
 n/  - tremolo bar up
/n\  - tremolo bar inverted dip
 =   - hold bend; also acts as connecting device for hammers/pulls
 <>  - volume swell (louder/softer)
 x   - on rhythm slash represents muted slash
 o   - on rhythm slash represents single note slash

Misc Legend
-----------
 |  - bar
||  - double bar
||o - repeat start
o|| - repeat end
*|  - double bar (ending)
 :  - bar (freetime)
 $  - Segno
 &  - Coda
Tempo markers -  = BPM(8/16=s8/s16), where s8 = swing 8ths, s16 = swing 16ths


***************************************************************************************
***************************************************************************************





Comments


Popular Fear Before The March Of Flames tabs & chords
Given To Dreams Bass Tabs
Lisben Girls Oh The Lisben Girls Bass Tabs
Drowning The Old Hag Intro Tabs
Given To Dreams 2 Tabs
Go Wash Your Mouth 2 Tabs
High As A Horse 1 Tabs
Motelroom Grandpiano 1 Tabs
On The Brightside She Could Choke 2 Tabs
What Happens In Vegas, Stays In Vegas Tabs
Whiskey Is Alright In Its Place, But Its Place Is In Hell Tabs


Song lyrics



↑ Back to top | Tablatures and chords are parodies/interpretations of the original songs. You may use it for private study, scholarship, research or language learning purposes only
© 2014 AZChords.com Contact us | Privacy policy | DMCA | Add/correct tabs | Request tabs | Top 50 tabs