» » »

Taking Cassandra To The End Of The World Party Tabs (ver.2)

Artists:  A B C D E F G H I J K L M N O P Q R S T U V W X Y Z # 

Taking Cassandra To The End Of The World Party Tabs (ver.2)

Fear Before The March Of Flames
Rating:
1/5 (1 vote)

Hard to play? Try these video lessons and learn fast.
                Taking Cassandra to the End of the World Party
Fear Before [the March of Flames]
The Always Open Mouth
Drop D [DADGBe]


intro
|---------------------------|
|-11-(x14)------------------|
|-14-------10-(x14)---------|
|------------------10-(x14)-|
|---------------------------|
|---------------------------|

...continue playing throughout mike's bass riff

fill @ 0:22-        0:28  (Drums) 0:37
|-0~------------7-7-7-0------------------|
|-5b/6b\5b-(x3)-5-5-5-5b-----------------|
|----------------------------------------|
|----------------------------------------|
|----------------------------------9-----|
|----------------------------------------|

The following is taken from 'J money' available at
taking_cassandra_to_the_end_of_the_world_party_tab.htm


guitar break

guitar 1 (x4)
e|---8-7--4-5--(tremelo pick)---|
b|------------------------------|
g|------------------------------|
d|------------------------------|
a|------------------------------|
E|------------------------------|

guitar 1 (till the end)
e|---12-12-12-12----------------------------------------------------|
b|----------------12-12-12-12---13-13-13-13--10-10-10-10------------|
g|-------------------(all tremelo picked)---------------------------|
d|------------------------------------------------------------------|
a|------------------------------------------------------------------|
E|------------------------------------------------------------------|

e|---5(x12)-4(x4)-13(x4)----------|
b|----------(tremelo picking)-----|
g|--------------------------------|
d|--------------------------------|
a|--------------------------------|
E|--------------------------------|
            
Hard to play? Try these video lessons and learn fast. | Correct




comments powered by Disqus
↑ Back to top | Tablatures and chords are parodies/interpretations of the original songs. You may use it for private study, scholarship, research or language learning purposes only