» » »

Fear Before The March Of Flames, Should Have Stayed In The Shallows Tabs (ver.1)

Artists:  A B C D E F G H I J K L M N O P Q R S T U V W X Y Z # 

Should Have Stayed In The Shallows Tabs (ver.1)

Fear Before The March Of Flames Tabs
 Rating:
3.7/5 (6 votes)
Should Have Stayed In The Shallows lessons Tabs too difficult? Try these video lessons and learn fast
                #------------------------------------------------------------------------------##

                       SHOULD HAVE STAYED IN THE SHALLOWS
                 As recorded by Fear Before The March Of Flames
                        (From the 2004 Album ART DAMAGE)

Words and Music by Fear Before The March Of Flames
Arranged by Fear Before The March Of Flames

Gtr I (D A D G B E) - 'Left Gtr.'
Gtr II (D A D G B E) - 'Right Gtr.'
Gtr III (D A D G B E) - 'Feedback & Effects'
Gtr IV (D A D G B E) - 'Feedback & Effects'
Gtr V (D A D G B E) - 'Children Clapping'

 Intro
  Dancefight Q=164
  G G#m       G   G#m G G#m       G   G#m
 4/4
  Gtr I
  E E S S E E E E E   E E S S E E E E E
|-------------------|-------------------|
|-------------------|-------------------|
|-4-4-x-x-x-4-4-4-4-|-4-4-x-x-x-4-4-4-4-|
|-5-6-x-x-x-6-5-5-6-|-5-6-x-x-x-6-5-5-6-|
|-------------------|-------------------|
|-------------------|-------------------|


  G G#m   G G#G   G#m G G#m   G G#G   G#m
  E E S S E E E E E   E E S S E E E E E
|-------------------|--------------------||
|-------------------|--------------------||
|-4-4-x-x-x-4-4-4-4-|-4-4-x-x-x-4-4-4-4--||
|-5-6-x-x-x-6-5-5-6-|-5-6-x-x-x-6-5-5-6--||
|-------------------|--------------------||
|-------------------|--------------------||


 "The party hasn't started.."
  G G#m     G#G   G#m G G#m     G#G   G#m
  Gtrs I, II
  E E S S E E E E E   E E S S E E E E E
|-------------------|-------------------|
|-------------------|-------------------|
|-4-4-x-x-x-4-4-4-4-|-4-4-x-x-x-4-4-4-4-|
|-5-6-x-x-x-6-5-5-6-|-5-6-x-x-x-6-5-5-6-|
|-------------------|-------------------|
|-------------------|-------------------|


  G G#m     G#G   G#m G G#m     G#G   G#m
  E E S S E E E E E   E E S S E E E E E
|-------------------|-------------------|
|-------------------|-------------------|
|-4-4-x-x-x-4-4-4-4-|-4-4-x-x-x-4-4-4-4-|
|-5-6-x-x-x-6-5-5-6-|-5-6-x-x-x-6-5-5-6-|
|-------------------|-------------------|
|-------------------|-------------------|


  G G#m     G#sus4G#b5G G#m     G#sus4G#b5G
              PM|                 PM|
  E E S S E E E E E   E E S S E E E E E
|-------------------|-------------------|
|-------------------|-------------------|
|-4-4-x-x-x-6-----7-|-4-4-x-x-x-6-----7-|
|-5-6-x-x-x-6-6-6-6-|-5-6-x-x-x-6-6-6-6-|
|-------------------|-------------------|
|-------------------|-------------------|


    G#m     G#sus4G#b5G G#m     N.C.
              PM|
  E E S S E E E E E   E E S S E   E     E     E     E
|-------------------|-------------x-----x-----x-----x---||
|-------------------|-------------x-----x-----x-----x---||
|-4-4-x-x-x-6-----7-|-4-4-x-x-x---x-----x-----x-----x---||
|-5-6-x-x-x-6-6-6-6-|-5-6-x-x-x---x-----x-----x-----x---||
|-------------------|-----------(<7>)-(<7>)-(<7>)-(<7>)-||
|-------------------|-------------x-----x-----x-----x---||


 "More ups and downs.."
  N.C.
  E E E E Q  E E   E E Q  E E E E
|---------0------|-----0----------|
|---------5------|-----5----------|
|---------x------|-----x----------|
|-6-3-----3--6-3-|-----3--6-3-----|
|-----0----------|-0----------0---|
|-------0--------|---0----------0-|


  E E E E Q  E E   E E Q    E     E     E     E
|---------0------|-----0----x-----x-----x-----x---|
|---------5------|-----5----x-----x-----x-----x---|
|---------x------|-----x----x-----x-----x-----x---|
|-6-3-----3--6-3-|-----3----x-----x-----x-----x---|
|-----0----------|-0------(<7>)-(<7>)-(<7>)-(<7>)-|
|-------0--------|---0------x-----x-----x-----x---|


  N.C.                                                      D5
                                                            PM--------|
  E E E E Q  E E   E E Q  E E E E   E E E E Q  E E   E E Q  S S E S S E
|---------0------|-----0----------|---------0------|-----0--------------|
|---------5------|-----5----------|---------5------|-----5--------------|
|---------x------|-----x----------|---------x------|-----x--------------|
|-6-3-----3--6-3-|-----3--6-3-----|-6-3-----3--6-3-|-----3--------------|
|-----0----------|-0----------0---|-----0----------|-0------0-0-0-0-0-0-|
|-------0--------|---0----------0-|-------0--------|---0----0-0-0-0-0-0-|


  N.C.
  E E E E Q  E E   E E Q  E E E E   E E E E Q  E E   E E Q  E E E E
|---------0------|-----0----------|---------0------|-----0--x-x-x-x-||
|---------5------|-----5----------|---------5------|-----5--x-x-x-x-||
|---------x------|-----x----------|---------x------|-----x--x-x-x-x-||
|-6-3-----3--6-3-|-----3--6-3-----|-6-3-----3--6-3-|-----3--x-x-x-x-||
|-----0----------|-0----------0---|-----0----------|-0------x-x-x-x-||
|-------0--------|---0----------0-|-------0--------|---0----x-x-x-x-||


 "Lets pry her ribs open.."
  N.C.
 5/4
  Q    E     E     E     E     E     E     E     E     Q    E     E     E     E     E     E     E     E
|-0----x-----x-----x-----x-----x-----x-----x-----x---|-0----x-----x-----x-----x-----x-----x-----x-----x---|
|-5----x-----x-----x-----x-----x-----x-----x-----x---|-5----x-----x-----x-----x-----x-----x-----x-----x---|
|-x----x-----x-----x-----x-----x-----x-----x-----x---|-x----x-----x-----x-----x-----x-----x-----x-----x---|
|-3----x-----x-----x-----x-----x-----x-----x-----x---|-3----x-----x-----x-----x-----x-----x-----x-----x---|
|----(<7>)-(<7>)-(<7>)-(<7>)-(<7>)-(<7>)-(<7>)-(<7>)-|----(<7>)-(<7>)-(<7>)-(<7>)-(<7>)-(<7>)-(<7>)-(<7>)-|
|------x-----x-----x-----x-----x-----x-----x-----x---|------x-----x-----x-----x-----x-----x-----x-----x---|


  Q    E     E     E     E     E     E     E     E     Q    E     E     E     E     E     E     E     E
|-0----x-----x-----x-----x-----x-----x-----x-----x---|-0----x-----x-----x-----x-----x-----x-----x-----x---||
|-5----x-----x-----x-----x-----x-----x-----x-----x---|-5----x-----x-----x-----x-----x-----x-----x-----x---||
|-x----x-----x-----x-----x-----x-----x-----x-----x---|-x----x-----x-----x-----x-----x-----x-----x-----x---||
|-3----x-----x-----x-----x-----x-----x-----x-----x---|-3----x-----x-----x-----x-----x-----x-----x-----x---||
|----(<7>)-(<7>)-(<7>)-(<7>)-(<7>)-(<7>)-(<7>)-(<7>)-|----(<7>)-(<7>)-(<7>)-(<7>)-(<7>)-(<7>)-(<7>)-(<7>)-||
|------x-----x-----x-----x-----x-----x-----x-----x---|------x-----x-----x-----x-----x-----x-----x-----x---||


 Interlude
  N.C.    D5    N.C.              D5    N.C.
          PM--|                   PM--|
  E E E E S S E E E E E   E E E E S S E E E E E
|-----------------------|-----------------------|
|-----------------------|-----------------------|
|-----------------------|-----------------------|
|-6-3-----------6-3-----|-6-3-----------6-3-6-7-|
|-----0---0-0-0-----0---|-----0---0-0-0---------|
|-------0-0-0-0-------0-|-------0-0-0-0---------|


  D5    N.C.D5        N.C.      D5    N.C.
                           3/4
  PM--|     PM------|           PM--|
  S S E E E S S E E E E E   E E S S E E E
|-------------------------|-----------------|
|-------------------------|-----------------|
|-------------------------|-----------------|
|-------6-3-----------6-3-|-6-7-------6-3---|
|-0-0-0-----0-0-0-0-0-----|-----0-0-0-------|
|-0-0-0-----0-0-0-0-0-----|-----0-0-0-------|


  N.C.                D5      N.C.                D5
 6/4
                      PM--|                       PM--|
  E E E E E E E E E E S S E   E E E E E E E E E E S S E
|---------------------------|---------------------------|
|-----6-5---------6-5-------|-----6-5---------6-5-------|
|-6-7-----6-0-6-7-----------|-6-7-----6-0-6-7-----------|
|---------------------------|---------------------------|
|---------------------0-0-0-|---------------------0-0-0-|
|---------------------0-0-0-|---------------------0-0-0-|


  N.C.                D5      N.C.D5    N.C.D5    N.C.
                      PM--|       PM--|     PM--|
  E E E E E E E E E E S S E   E E S S E E E S S E E E E E
|---------------------------|-------------------------------||
|-----6-5---------6-5-------|---------------------6-5-------||
|-6-7-----6-0-6-7-----------|-6-7-------6-7-----------6-0---||
|---------------------------|-------------------------------||
|---------------------0-0-0-|-----0-0-0-----0-0-0-----------||
|---------------------0-0-0-|-----0-0-0-----0-0-0-----------||


 "And bathe in her chest.."
  N.C.
 5/4
  Q    E     E     E     E     E     E     E     E     Q    E     E     E     E     E     E     E     E
|-0----x-----x-----x-----x-----x-----x-----x-----x---|-0----x-----x-----x-----x-----x-----x-----x-----x---|
|-5----x-----x-----x-----x-----x-----x-----x-----x---|-5----x-----x-----x-----x-----x-----x-----x-----x---|
|-x----x-----x-----x-----x-----x-----x-----x-----x---|-x----x-----x-----x-----x-----x-----x-----x-----x---|
|-3----x-----x-----x-----x-----x-----x-----x-----x---|-3----x-----x-----x-----x-----x-----x-----x-----x---|
|----(<7>)-(<7>)-(<7>)-(<7>)-(<7>)-(<7>)-(<7>)-(<7>)-|----(<7>)-(<7>)-(<7>)-(<7>)-(<7>)-(<7>)-(<7>)-(<7>)-|
|------x-----x-----x-----x-----x-----x-----x-----x---|------x-----x-----x-----x-----x-----x-----x-----x---|


  Q    E     E     E     E     E     E     E     E     Q    E     E     E     E     E     E     E     E
|-0----x-----x-----x-----x-----x-----x-----x-----x---|-0----x-----x-----x-----x-----x-----x-----x-----x---||
|-5----x-----x-----x-----x-----x-----x-----x-----x---|-5----x-----x-----x-----x-----x-----x-----x-----x---||
|-x----x-----x-----x-----x-----x-----x-----x-----x---|-x----x-----x-----x-----x-----x-----x-----x-----x---||
|-3----x-----x-----x-----x-----x-----x-----x-----x---|-3----x-----x-----x-----x-----x-----x-----x-----x---||
|----(<7>)-(<7>)-(<7>)-(<7>)-(<7>)-(<7>)-(<7>)-(<7>)-|----(<7>)-(<7>)-(<7>)-(<7>)-(<7>)-(<7>)-(<7>)-(<7>)-||
|------x-----x-----x-----x-----x-----x-----x-----x---|------x-----x-----x-----x-----x-----x-----x-----x---||


   "I'm the life of the party.."
    G G#m     G#G   G#m G G#m     G#G   G#m
   4/4
    E E S S E E E E E   E E S S E E E E E
||--------------------|-------------------|
||o-------------------|-------------------|
||--4-4-x-x-x-4-4-4-4-|-4-4-x-x-x-4-4-4-4-|
||--5-6-x-x-x-6-5-5-6-|-5-6-x-x-x-6-5-5-6-|
||o-------------------|-------------------|
||--------------------|-------------------|


  G G#m     G#G   G#m G G#m     G#G   G#m
  E E S S E E E E E   E E S S E E E E E
|-------------------|--------------------||
|-------------------|-------------------o||
|-4-4-x-x-x-4-4-4-4-|-4-4-x-x-x-4-4-4-4--||
|-5-6-x-x-x-6-5-5-6-|-5-6-x-x-x-6-5-5-6--||
|-------------------|-------------------o||
|-------------------|--------------------||


 "And when they find her.."
  N.C.    D5    N.C.                              D5
          PM--|                                   PM--|
  E E E E S S E E E   E E   E     E     E     E   S S E
|-------------------|-------x-----x-----x-----x---------|
|-------------------|-------x-----x-----x-----x---------|
|-------------------|-------x-----x-----x-----x---------|
|-6-3-----------6-3-|-------x-----x-----x-----x---------|
|-----0---0-0-0-----|-0---(<7>)-(<7>)-(<7>)-(<7>)-0-0-0-|
|-------0-0-0-0-----|---0---x-----x-----x-----x---0-0-0-|


  N.C.    D5    N.C.                              D5
          PM--|                                   PM--|
  E E E E S S E E E   E E   E     E     E     E   S S E
|-------------------|-------x-----x-----x-----x---------|
|-------------------|-------x-----x-----x-----x---------|
|-------------------|-------x-----x-----x-----x---------|
|-6-3-----------6-3-|-------x-----x-----x-----x---------|
|-----0---0-0-0-----|-0---(<7>)-(<7>)-(<7>)-(<7>)-0-0-0-|
|-------0-0-0-0-----|---0---x-----x-----x-----x---0-0-0-|


  N.C.    D5    N.C.                              D5
          PM--|                                   PM--|
  E E E E S S E E E   E E   E     E     E     E   S S E
|-------------------|-------x-----x-----x-----x---------|
|-------------------|-------x-----x-----x-----x---------|
|-------------------|-------x-----x-----x-----x---------|
|-6-3-----------6-3-|-------x-----x-----x-----x---------|
|-----0---0-0-0-----|-0---(<7>)-(<7>)-(<7>)-(<7>)-0-0-0-|
|-------0-0-0-0-----|---0---x-----x-----x-----x---0-0-0-|


  N.C.    D5    N.C.
          PM--|
  E E E E S S E E E   E E H.
|-------------------|-----------||
|-------------------|-----------||
|-------------------|-----------||
|-6-3-----------6-3-|-----------||
|-----0---0-0-0-----|-0---------||
|-------0-0-0-0-----|---0-------||


   "Shark that got her was.."
    N.C.    D5    N.C.           D5      N.C.    D5    N.C.
            PM--|                PM--|           PM--|
    E E E E S S E E E   E E H    S S E   E E E E S S E E E   E E E E E E E E
||--------------------|----------------|-------------------|------------------||
||o-------------------|----------------|-------------------|---------6-5-----o||
||--------------------|----------------|-------------------|-----6-7-----6-0--||
||--6-3-----------6-3-|----------------|-6-3-----------6-3-|-6-7--------------||
||o-----0---0-0-0-----|-0--------0-0-0-|-----0---0-0-0-----|-----------------o||
||--------0-0-0-0-----|---0------0-0-0-|-------0-0-0-0-----|------------------||


 *Crazy Breakdown*
  N.C.                                                 D5
  Gtrs I, II
                                                       PM------------|
  E.    E.     E   E.    E.     E     E.    E.     E   S S S S S S S S
|-0-----0------0---0-----0------0---|-0-----0------0-------------------|
|-5-----5------5---5-----5------5---|-5-----5------5-------------------|
|-x-----x------x---x-----x------x---|-x-----x------x-------------------|
|-3-----3------3---3-----3------3---|-3-----3------3-------------------|
|-----------------------------------|------------------0-0-0-0-0-0-0-0-|
|-----------------------------------|------------------0-0-0-0-0-0-0-0-|
|
| Gtr III
| TPTPTPTP TPTPTPTPTPTPTPTP TPTPTPTP  TPTPTPTP TPTPTPTPTPTPTPTPTPTPTPTP
| S S S S  S S S S S S S S  S S S S   S S S S  S S S S S S S S S S S S
|-----------------------------------|----------------------------------|
|-----------------------------------|----------------------------------|
|-xsxsxsx--xsxsxsx-xsxsxsx--xsxsxsx-|-xsxsxsx--xsxsxsx-xsxsxsx-xsxsxsx-|
|-----------------------------------|----------------------------------|
|-----------------------------------|----------------------------------|
|-----------------------------------|----------------------------------|


  N.C.                                                 D5
                                                       PM------------|
  E.    E.     E   E.    E.     E     E.    E.     E   S S S S S S S S
|-0-----0------0---0-----0------0---|-0-----0------0-------------------|
|-5-----5------5---5-----5------5---|-5-----5------5-------------------|
|-x-----x------x---x-----x------x---|-x-----x------x-------------------|
|-3-----3------3---3-----3------3---|-3-----3------3-------------------|
|-----------------------------------|------------------0-0-0-0-0-0-0-0-|
|-----------------------------------|------------------0-0-0-0-0-0-0-0-|
|
| TPTPTPTP TPTPTPTPTPTPTPTP TPTPTPTP  TPTPTPTP TPTPTPTPTPTPTPTPTPTPTPTP
| S S S S  S S S S S S S S  S S S S   S S S S  S S S S S S S S S S S S
|-----------------------------------|----------------------------------|
|-----------------------------------|----------------------------------|
|-xsxsxsx--xsxsxsx-xsxsxsx--xsxsxsx-|-xsxsxsx--xsxsxsx-xsxsxsx-xsxsxsx-|
|-----------------------------------|----------------------------------|
|-----------------------------------|----------------------------------|
|-----------------------------------|----------------------------------|


  N.C.                                                 D5
  Gtrs I, II
                                                       PM--------------|
  E.    E.     E   E.    E.     E     E.    E.     E   S S S S S S  S  S
|-0-----0------0---0-----0------0---|-0-----0------0---------------------|
|-5-----5------5---5-----5------5---|-5-----5------5---------------------|
|-x-----x------x---x-----x------x---|-x-----x------x---------------------|
|-3-----3------3---3-----3------3---|-3-----3------3---------------------|
|-----------------------------------|------------------0-0-0-0-0-0--0--0-|
|-----------------------------------|------------------0-0-0-0-0-0--0--0-|
|
| Gtr III
| TPTPTPTP TPTPTPTPTPTPTPTP TPTPTPTP  TPTPTPTP TPTPTPTPTPTPTPTPTPTP TP TP
| S S S S  S S S S S S S S  S S S S   S S S S  S S S S S S S S S S  S  S
|-----------------------------------|------------------------------------|
|-----------------------------------|------------------------------------|
|-xsxsxsx--xsxsxsx-xsxsxsx--xsxsxsx-|-xsxsxsx--xsxsxsx-xsxsxsx-xsxs=xs=x-|
|-----------------------------------|------------------------------------|
|-----------------------------------|------------------------------------|
|-----------------------------------|------------------------------------|
|
| Gtr IV
|                                                      TP
| W                                   H                Q.           E
|-----------------------------------|------------------------------------|
|-----------------------------------|------------------------------------|
|-----------------------------------|------------------------------------|
|-----------------------------------|------------------------------------|
|-----------------------------------|------------------4s==========11/---|
|-----------------------------------|------------------------------------|


  N.C.
  E.    E.     E   E.    E.      E
|-0-----0------0---0-----0-------0---|
|-5-----5------5---5-----5-------5---|
|-x-----x------x---x-----x-------x---|
|-3-----3------3---3-----3-------3---|
|------------------------------------|
|------------------------------------|
|
| TPTPTPTP TPTPTPTPTPTPTPTP TPTP TPTP
| S S S S  S S S S S S S S  S S  S S
|------------------------------------|
|------------------------------------|
|-xsxsxsx--xsxsxsx-xsxsxsx--xsxs=xsx-|
|------------------------------------|
|------------------------------------|
|------------------------------------|
|
| TP  TP   TP  TP  TP  TP   TP   TP
| E   E    E   E   E   E    E    E
|------------------------------------|
|------------------------------------|
|-3S==4S===5S==6S==7S==8S===9S==10S==|
|------------------------------------|
|------------------------------------|
|------------------------------------|


                       H.=H
                       D5
                        PM----------------|
   E.     E.       E    S S  S S  S S  S  S
|--0------0--------0------------------------||
|--5------5--------5------------------------||
|--x------x--------x------------------------||
|--3------3--------3------------------------||
|-----------------------0-0--0-0--0-0--0--0-||
|-----------------------0-0--0-0--0-0--0--0-||
|
|  TPTP TPTP  TPTP TPTP TPTP TPTP TPTP TP TP
|  S S  S S   S S  S S  S S  S S  S S  S  S
|-------------------------------------------||
|-------------------------------------------||
|--xsxs=xsx---xsxs=xsx--xsxs=xsx--xsxs=xs=x-||
|-------------------------------------------||
|-------------------------------------------||
|-------------------------------------------||
|
|  TP   TP    TP   TP   TP   TP   TP   TP
|  E    E     E    E    E    E    E    E
|-------------------------------------------||
|-------------------------------------------||
|-11S==12S===13S==14S==15S==16S==17S==18\---||
|-------------------------------------------||
|-------------------------------------------||
|-------------------------------------------||


 "Some things.."
  Beatdown Q=105
  D5   G#5    D5   G#5    D5      G#5    G5
 2/2
  Gtrs I, II
  H    H      H    H      E. E. E H      E E E E E E E E
|-----------|-----------|--------------|-----------------|
|-----------|-----------|--------------|-----------------|
|-----------|-----------|--------------|-----------------|
|-0----6----|-0----6----|-0--0--0-6----|-5-5-5-5-5-5-5-5-|
|-0----6----|-0----6----|-0--0--0-6----|-5-5-5-5-5-5-5-5-|
|-0----6----|-0----6----|-0--0--0-6----|-5-5-5-5-5-5-5-5-|


  H.=H A Little Slower Q=100             H.=H
  D5   G#5    D5      G#5    D5   G#5    A5
  H    H      E. E. E H      H    H      E E E E E E E E
|-----------|--------------|-----------|------------------|
|-----------|--------------|-----------|------------------|
|-----------|--------------|-----------|------------------|
|-0----6----|-0--0--0-6----|-0----6----|-7-7-7-7-7-7-7-7--|
|-0----6----|-0--0--0-6----|-0----6----|-7-7-7-7-7-7-7-7--|
|-0----6----|-0--0--0-6----|-0----6----|-7-7-7-7-7-7-7-7--|


  Slower QH.=H      Slightly Slower Q=85
  D5      G#5       D5      G#5       D5      G#5       G5
  Gtrs I, II
  H       H         H       H         H       H         E E E E E E E E
|-----------------|-----------------|-----------------|------------------|
|-----------------|-----------------|-----------------|------------------|
|-----------------|-----------------|-----------------|------------------|
|-0-------6-------|-0-------6-------|-0-------6-------|-5-5-5-5-5-5-5-5--|
|-0-------6-------|-0-------6-------|-0-------6-------|-5-5-5-5-5-5-5-5--|
|-0-------6-------|-0-------6-------|-0-------6-------|-5-5-5-5-5-5-5-5--|
|
| Gtr III
| TPTPTPTPTPTPTPTP  TPTPTPTPTPTPTPTP  TPTPTPTPTPTPTPTP  TPTPTPTPTPTPTPTP
| E E E E E E E E   E E E E E E E E   E E E E E E E E   E E E E E E E E
|-xSxSxSxSxSxSxSxS|=xSxSxSxSxSxSxSxS|=xSxSxSxSxSxSxSxS|=xSxSxSxSxSxSxSxS=|
|-----------------|-----------------|-----------------|------------------|
|-----------------|-----------------|-----------------|------------------|
|-----------------|-----------------|-----------------|------------------|
|-----------------|-----------------|-----------------|------------------|
|-----------------|-----------------|-----------------|------------------|


  D5      G#5       D5      G#5       D5      G#5       A5
  H       H         H       H         H       H         E E E E E E E E
|-----------------|-----------------|-----------------|-----------------||
|-----------------|-----------------|-----------------|-----------------||
|-----------------|-----------------|-----------------|-----------------||
|-0-------6-------|-0-------6-------|-0-------6-------|-7-7-7-7-7-7-7-7-||
|-0-------6-------|-0-------6-------|-0-------6-------|-7-7-7-7-7-7-7-7-||
|-0-------6-------|-0-------6-------|-0-------6-------|-7-7-7-7-7-7-7-7-||
|
| TPTPTPTPTPTPTPTP  TPTPTPTPTPTPTPTP  TPTPTPTPTPTPTPTP  TPTPTPTPTPTPTPTP
| E E E E E E E E   E E E E E E E E   E E E E E E E E   E E E E E E E E
|-xSxSxSxSxSxSxSxS|=xSxSxSxSxSxSxSxS|=xSxSxSxSxSxSxSxS|=xSxSxSxSxSxSxSx-||
|-----------------|-----------------|-----------------|-----------------||
|-----------------|-----------------|-----------------|-----------------||
|-----------------|-----------------|-----------------|-----------------||
|-----------------|-----------------|-----------------|-----------------||
|-----------------|-----------------|-----------------|-----------------||


 Bridge
  Keep Dancin' Q=164
  Asus2
 2/4
  Gtr I
  H      +H       +H       +H
|------|--------|--------|--------||
|------|--------|--------|--------||
|------|--------|--------|--------||
|-7----|-(7)----|-(7)----|-(7)----||
|-7----|-(7)----|-(7)----|-(7)----||
|-7----|-(7)----|-(7)----|-(7)----||
|
| Gtr II
| H      +H       +H       +H
|------|--------|--------|--------||
|------|--------|--------|--------||
|------|--------|--------|--------||
|-9----|-(9)----|-(9)----|-(9)----||
|-7----|-(7)----|-(7)----|-(7)----||
|-7----|-(7)----|-(7)----|-(7)----||


   *Crazy Breakdown*
    N.C.                                                 D5
   4/4
    Gtrs I, II
                                                         PM--------------|
    E.    E.     E   E.    E.     E     E.    E.     E   S S S S S  S  S  S   3x
||--0-----0------0---0-----0------0---|-0-----0------0------------------------||
||o-5-----5------5---5-----5------5---|-5-----5------5-----------------------o||
||--x-----x------x---x-----x------x---|-x-----x------x------------------------||
||--3-----3------3---3-----3------3---|-3-----3------3------------------------||
||o-----------------------------------|------------------0-0-0-0-0--0--0--0--o||
||------------------------------------|------------------0-0-0-0-0--0--0--0---||
|
|   Gtr III
|   TPTPTPTP TPTPTPTPTPTPTPTP TPTPTPTP  TPTPTPTP TPTPTPTPTPTPTPTPTP TP TP TP
|   S S S S  S S S S S S S S  S S S S   S S S S  S S S S S S S S S  S  S  S   3x
||------------------------------------|---------------------------------------||
||o-----------------------------------|--------------------------------------o||
||--xsxsxsx--xsxsxsx-xsxsxsx--xsxsxsx-|-xsxsxsx--xsxsxsx-xsxsxsx-xs=xs=xs=x---||
||------------------------------------|---------------------------------------||
||o-----------------------------------|--------------------------------------o||
||------------------------------------|---------------------------------------||
|
|   Gtr IV
|                                                        TPTPTPTPTP TP TP TP
|   W                                   H                S S S S S  S  S  S   3x
||------------------------------------|---------------------------------------||
||o-----------------------------------|--------------------------------------o||
||------------------------------------|---------------------------------------||
||------------------------------------|------------------5S6S7S8S9S10S11S12/--||
||o-----------------------------------|--------------------------------------o||
||------------------------------------|---------------------------------------||


  N.C.
  E.    E.     E   E.    E.      E
|-0-----0------0---0-----0-------0---|
|-5-----5------5---5-----5-------5---|
|-x-----x------x---x-----x-------x---|
|-3-----3------3---3-----3-------3---|
|------------------------------------|
|------------------------------------|
|
| TPTPTPTP TPTPTPTPTPTPTPTP TPTP TPTP
| S S S S  S S S S S S S S  S S  S S
|------------------------------------|
|------------------------------------|
|-xsxsxsx--xsxsxsx-xsxsxsx--xsxs=xsx-|
|------------------------------------|
|------------------------------------|
|------------------------------------|
|
| TP  TP   TP  TP  TP  TP   TP   TP
| E   E    E   E   E   E    E    E
|------------------------------------|
|------------------------------------|
|-3S==4S===5S==6S==7S==8S===9S==10S==|
|------------------------------------|
|------------------------------------|
|------------------------------------|


                       D5
                        PM-------|
   E.     E.       E    Q         Q
|--0------0--------0------------------------||
|--5------5--------5------------------------||
|--x------x--------x------------------------||
|--3------3--------3------------------------||
|-----------------------0---------0---------||
|-----------------------0---------0---------||
|
|  TPTP TPTP  TPTP TPTP TPTP TPTP TPTP TP TP
|  S S  S S   S S  S S  S S  S S  S S  S  S
|-------------------------------------------||
|-------------------------------------------||
|--xsxs=xsx---xsxs=xsx--xsxs=xsx--xsxs=xs=x-||
|-------------------------------------------||
|-------------------------------------------||
|-------------------------------------------||
|
|  TP   TP    TP   TP   TP   TP   TP   TP
|  E    E     E    E    E    E    E    E
|-------------------------------------------||
|-------------------------------------------||
|-11S==12S===13S==14S==15S==16S==17S==18\---||
|-------------------------------------------||
|-------------------------------------------||
|-------------------------------------------||


 Guitar Break
  G G#m     G#G   G#m G G#m     G#G   G#m
  Gtrs I, II
  E E S S E E E E E   E E S S E E E E E
|-----x-x-x---------|-----x-x-x---------|
|-----x-x-x---------|-----x-x-x---------|
|-4-4-x-x-x-4-4-4-4-|-4-4-x-x-x-4-4-4-4-|
|-5-6-x-x-x-6-5-5-6-|-5-6-x-x-x-6-5-5-6-|
|-----x-x-x---------|-----x-x-x---------|
|-----x-x-x---------|-----x-x-x---------|


  G G#m     G#G   G#m G G#m     G#G   G#m
  E E S S E E E E E   E E S S E E E E E
|-----x-x-x---------|-----x-x-x---------||
|-----x-x-x---------|-----x-x-x---------||
|-4-4-x-x-x-4-4-4-4-|-4-4-x-x-x-4-4-4-4-||
|-5-6-x-x-x-6-5-5-6-|-5-6-x-x-x-6-5-5-6-||
|-----x-x-x---------|-----x-x-x---------||
|-----x-x-x---------|-----x-x-x---------||


   Outro
    G G#m     G#sus4G#b5G G#m     G#sus4G#b5G
                PM|                 PM|
    E E S S E E E E E   E E S S E E E E E
||------x-x-x---------|-----x-x-x---------|
||o-----x-x-x---------|-----x-x-x---------|
||--4-4-x-x-x-6-----7-|-4-4-x-x-x-6-----7-|
||--5-6-x-x-x-6-6-6-6-|-5-6-x-x-x-6-6-6-6-|
||o-----x-x-x---------|-----x-x-x---------|
||------x-x-x---------|-----x-x-x---------|


    G#m     G#sus4G#b5G G#m     G#sus4G#b5
              PM|                 PM|
  E E S S E E E E E   E E S S E E E E E
|-----x-x-x---------|-----x-x-x-----------||
|-----x-x-x---------|-----x-x-x----------o||
|-4-4-x-x-x-6-----7-|-4-4-x-x-x-6-----7---||
|-5-6-x-x-x-6-6-6-6-|-5-6-x-x-x-6-6-6-6---||
|-----x-x-x---------|-----x-x-x----------o||
|-----x-x-x---------|-----x-x-x-----------||


 Yaaaaaaay!
  G#m
  Gtrs I, II
  E H..               W                 W
|-------------------|-----------------|-----------------*|
|-------------------|-----------------|-----------------*|
|-4-----------------|-----------------|-----------------*|
|-6-----------------|-----------------|-----------------*|
|-------------------|-----------------|-----------------*|
|-------------------|-----------------|-----------------*|
|
| Gtr V
| E E   E E E E E E   E E E E E E E E   E E E E E E E E
|-------------------|-----------------|-----------------*|
|-------------------|-----------------|-----------------*|
|-------------------|-----------------|-----------------*|
|-x-x---x-x-x-x-x-x-|-x-x-x-x-x-x-x-x-|-x-x-x-x-x-x-x-x-*|
|-x-x---x-x-x-x-x-x-|-x-x-x-x-x-x-x-x-|-x-x-x-x-x-x-x-x-*|
|-x-x---x-x-x-x-x-x-|-x-x-x-x-x-x-x-x-|-x-x-x-x-x-x-x-x-*|


Duration Legend
---------------
W - whole; H - half; Q - quarter; E - 8th; S - 16th; T - 32nd; X - 64th; a - acciaccatura
+ - note tied to previous; . - note dotted; .. - note double dotted
Uncapitalized letters represent notes that are staccato (1/2 duration)
Irregular groupings are notated above the duration line
Duration letters will always appear directly above the note/fret number it represents the
duration for.  Duration letters with no fret number below them represent rests.  Multi-
bar rests are notated in the form Wxn, where n is the number of bars to rest for.  Low
melody durations appear below the staff

Tablature Legend
----------------
 h   - hammer-on
 p   - pull-off
 b   - bend
 pb  - pre-bend
 r   - bend release (if no number after the r, then release immediately)
 /\  - slide into or out of (from/to "nowhere")
 s   - legato slide
 S   - shift slide
  - natural harmonic
[n]  - artificial harmonic
n(n) - tapped harmonic
 ~   - vibrato
 tr  - trill
 T   - tap
 TP  - trem. picking
 PM  - palm muting
\n/  - tremolo bar dip; n = amount to dip
 \n  - tremolo bar down
 n/  - tremolo bar up
/n\  - tremolo bar inverted dip
 =   - hold bend; also acts as connecting device for hammers/pulls
 <>  - volume swell (louder/softer)
 x   - on rhythm slash represents muted slash
 o   - on rhythm slash represents single note slash

Misc Legend
-----------
 |  - bar
||  - double bar
||o - repeat start
o|| - repeat end
*|  - double bar (ending)
 :  - bar (freetime)
 $  - Segno
 &  - Coda
Tempo markers -  = BPM(8/16=s8/s16), where s8 = swing 8ths, s16 = swing 16ths


***************************************************************************************
***************************************************************************************
            
Submit corrections

comments powered by Disqus
↑ Back to top | Fear Before The March Of Flames Tabs for Should Have Stayed In The Shallows. Lyrics for acoustic guitar and electric guitar. Tablatures and chords are parodies/interpretations of the original songs. You may use it for private study, scholarship, research or language learning purposes only