» » »

Motelroom Grandpiano Tabs (ver.1)

Artists:  A B C D E F G H I J K L M N O P Q R S T U V W X Y Z # 

Motelroom Grandpiano Tabs (ver.1)

Fear Before The March Of Flames
Rating:
3/5 (1 vote)

Hard to play? Try these video lessons and learn fast.
                Tuning: Drop D

This is my first tab, I hope you all enjoy. :)

                                     Intro
e|---------------bend 5 gradually--------------------------------------------|
B|---------------5-5-5-5-5-5---------------5-5-5-5-5-5-----------------------|
G|---------------------------------------------------------------------------|
D|------------------------------------------------------------------4---4----|
A|--4-4-4--4-4-4-------------4-4-4--4-4-4-------------4-4-4--4-4-4----4---4--|
D|--4-4-4--4-4-4-------------4-4-4--4-4-4-------------4-4-4--4-4-4-----------|

e|----------------------------|
B|-----------------x-x--------| Repeat
G|-----------------x-x--------|   x2
D|-----------------x-x---0----| 
A|---4-4-4--4-4-4--x-x---0----|
D|---4-4-4--4-4-4--------0----|
                 
  
   Lead Guitar  (I'm a little iffy on this part, but it sounds OK.)      
e|----------------------------------------------------------------|
B|---7-7-7-7-9-9-9-7-7-7-7-9-9-9-7-7-7-7-9-9-9-7-7-7-7--9---------|
G|---4-4-4-4-6-6-6-4-4-4-4-6-6-6-4-4-4-4-6-6-6-4-4-4-4--6---------|
D|----------------------------------------------------------------|
A|----------------------------------------------------------------|
D|----------------------------------------------------------------|
    
   Rhythm Guitar 
e|--------------------------0---------|
B|--------------------------0---------|
G|------------------------------------|
D|---4-4h5-4--4h5-4--4h5-4------------|
A|---4-4h5-4--4h5-4--4h5-4------------|
D|---4-4h5-4--4h5-4--4h5-4------------|

              
  Lead Guitar
e|---------8-----------|
B|-----6-6-----6-8-6---|
G|---8-------8---------|
D|---------------------|
A|---------------------|
D|---------------------|
  
  Rhythm Guitar
e|------------------------------------------------|
B|------------------------------------------------|
G|------------------------------------------------|
D|---8-(x16)---7-(x16)----------------------------|
A|----------------------0-0-0--0-0--0-0--0-0--0-0-|
D|----------------------0-0-0--0-0--0-0--0-0--0-0-|
                      PM^ ^ ^  ^ ^  ^ ^  ^ ^  ^ ^                   

  Lead Guitar            
e|-------------------------------------|
B|-------------------------------------|
G|-------------------------------------|
D|---0-7-8-0-7-8-0--0-7-8-0-7-8/10-----|
A|-------------------------------------|
D|-------------------------------------|
  
  Rhythm Guitar
e|-------------------------------------|
B|-------------------------------------|
G|-------------------------------------|
D|---0-7-8-0-7-8-0--0-7-8-0-7-8/10-----|
A|---0-7-8-0-7-8-0--0-7-8-0-7-8/10-----|
D|---0-7-8-0-7-8-0--0-7-8-0-7-8/10-----|
  
   Lead Guitar
e|-------------------------------------|
B|-------------------------------------|
G|---10--------12----------------------|
D|---x--(x7)---x---(x7)----------------|
A|---8---------10----------------------|
D|-------------------------------------|
                     
                           Outro
   Lead Guitar       
e|----------------------------------------------------------------|
B|---7-7-7-7-9-9-9-7-7-7-7-9-9-9-7-7-7-7-9-9-9-7-7-7-7--9---------|
G|---4-4-4-4-6-6-6-4-4-4-4-6-6-6-4-4-4-4-6-6-6-4-4-4-4--6---------| 
D|----------------------------------------------------------------|
A|----------------------------------------------------------------|
D|----------------------------------------------------------------|
    
   Rhythm Guitar 
e|--------------------------0---------|
B|--------------------------0---------|
G|------------------------------------|
D|---4-4h5-4--4h5-4--4h5-4------------|
A|---4-4h5-4--4h5-4--4h5-4------------|
D|---4-4h5-4--4h5-4--4h5-4------------|
  
            
Hard to play? Try these video lessons and learn fast. | Correct




comments powered by Disqus
↑ Back to top | Tablatures and chords are parodies/interpretations of the original songs. You may use it for private study, scholarship, research or language learning purposes only