» » »

Lisben Girls Oh The Lisben Girls Bass tabs (ver.1)

Artists:  A B C D E F G H I J K L M N O P Q R S T U V W X Y Z # 

Lisben Girls Oh The Lisben Girls Bass tabs (ver.1)

Fear Before The March Of Flames
Rating:
0/5 (0 votes)

Hard to play? Try these video lessons and learn fast.
                Band: Fear Before The March Of Flames
Drop D Tuning: GDAD



G|------------------------------------------------------------------|
D|00000000--------00000000--------00000000--------00000000----------|
A|--------22222222--------22222222--------22222222--------22222222--|
D|------------------------------------------------------------------|


0:09
G|------------------------------------------------------|
D|------------00000000-----------------00000000----3-3--|
A|-------0------------1-1---------0------------0-0------|
D|1-0--3-------------------1-0--3-----------------------|x2


0:34
G|-------------------------------------|
D|-------------------------------------|
A|-------------------------------------|
D|008-000-0-0-8-000-008-000-0-0-8-000--|


0:43
G|----------------------------------|
D|----------------------------------|
A|55555555555555555555555555555555--|
D|----------------------------------|


0:47
G|-------------------------------------|
D|-------------------------------------|
A|-------------------------------------|
D|008-000-0-0-8-000-008-000-0-0-8-000--|x2


0:57
G|--------------------------------------------------------------|
D|--------------------------------------------------------------|
A|---------------1111-111-111-111-------------------------------|
D|000-000-000-000-----------------333-333--33-333-555-55555533--|

G|------------------------------------------------------------------|
D|------------------------------------------------------------------|
A|---------------1111-111--11-111-----------------------------------|
D|000-000--00-000-----------------333-333--33-333-555-555-88887777--|


1:16
G|----------------------------|
D|----------------------------|
A|-------------------------0--|
D|1-0--------------------3----|x4


1:41
G|------------------------------------------------------|
D|------------00000000-----------------00000000----3-3--|
A|-------0------------1-1---------0------------0-0------|
D|1-0--3-------------------1-0--3-----------------------|x2


1:56
G|-----------------------|
D|-----------------------|
A|0-2-0--2-3-5-22222222--|
D|-----------------------|x4


2:06
G|----------------------------|
D|----------------------------|
A|-------------------------0--|
D|1-0--------------------3----|x4
            
Hard to play? Try these video lessons and learn fast. | Correct




comments powered by Disqus
↑ Back to top | Tablatures and chords are parodies/interpretations of the original songs. You may use it for private study, scholarship, research or language learning purposes only