» » »

Fear Before The March Of Flames, High As A Horse Tabs (ver.2)

Artists:  A B C D E F G H I J K L M N O P Q R S T U V W X Y Z # 

High As A Horse Tabs (ver.2)

Fear Before The March Of Flames Tabs
 Rating:
4/5 (8 votes)
High As A Horse lessons Tabs too difficult? Try these video lessons and learn fast
1
                High as a Horse (Of Horses and Medicine/High as Horses)
Fear Before the March of Flames
The Always Open Mouth
Tuning: CGCFAB
Notes: I'm tabbing this on an acoustic guitar. For U-G.com Use only.

intro (guitar 1)

(0:00-0:22)
B|-6--6-6--6-6--5-5--5- -------------|
A|-7--7-7--7-7--6-6--6- -------------|
F|-8--8-8--8-8--7-7--7- -------------| (back to intro for verse 1.)
C|-8--8-8--8-8--7-7--7- -888\3-888\3-|
G|-6--6-6--6-6--5-5--5- -888\3-888\3-|
C|-x--x-x--x-x--x-x--x- -888\3-888\3-|

intro (guitar 2)
(0:00-0:22)
B|---------------------|
A|---------------------|
F|--33-3-33-3-33-------|
C|---------------------|
G|---------------------|
C|---------------------|


Keyboard verse  (0:34-0:56) (converted to guitar...as best as I could. Sorry.)

B|---------------------------------------------------------|
A|---------------------------------------------------------|
F|-9-10-9-10-12-10-9-7-9--10-9-10-13-10-9--10-9-10-13-10-9-|
C|---------------------------------------------------------|
G|---------------------------------------------------------|
C|---------------------------------------------------------|


Verse 2 (guitar 1)

(0:57)
B|-----------------------|
A|-----------------------|
F|-----------------------|
C|-88888 3333 88888 3333-
G|-88888 3333 88888 3333-
C|-88888\3333/88888\3333-


verse 2 (guitar 2)

|--------------------------------------------|
|--------------------------------------------|
|-77777777777777777777777-333333333333333333-|
|-77777777777777777777777-333333333333333333-|
|-55555555555555555555555-111111111111111111-|
|--------------------------------------------|


(theres a pill for every f**ked up thought...)
|--------------------------------------------|
|--------------------------------------------|
|-88888888888888888888888-444444444444444444-|
|-88888888888888888888888-444444444444444444-|
|-66666666666666666666666-222222222222222222-|
|--------------------------------------------|

sweet little break down:

|----------------|
|----------------|
|--3-3p1---3-3p1-|
|-1-1-----1-1----|
|----------------|
|----------------|

(continued)

|------------------------|
|-22222222222-1111111111-|
|-33333333333------------|
|------------------------|
|------------------------|
|------------------------|


THEN back to: Verse 2 (0:57) and add:

 |----------|
 |----------|
F|-   (555)-
 |-888 333--|
 |-888 333--|
 |-888\333--|

*Note: Bend the F string.


\ = slide down
/ = slide up
. = palm mute
#h# = hammer-on
#p# = pull-off
x = muted
            
Submit corrections

comments powered by Disqus
↑ Back to top | Fear Before The March Of Flames Tabs for High As A Horse. Lyrics for acoustic guitar and electric guitar. 1 Tablatures and chords are parodies/interpretations of the original songs. You may use it for private study, scholarship, research or language learning purposes only