» » »

Fear Before The March Of Flames, High As A Horse Tabs (ver.1)

Artists:  A B C D E F G H I J K L M N O P Q R S T U V W X Y Z # 

High As A Horse Tabs (ver.1)

Fear Before The March Of Flames Tabs
Rating:
2/5 (2 votes)
High As A Horse lessons Tabs too difficult? Try these video lessons and learn fast
                E--7-------7--7-------7--6-------6--6-------6---|Intro
B--9--99-9-9--9--99-9-9--8--88-8-8--8--88-8-8---|and first
G--8--88-8-8--8--88-8-8--9--99-9-9--9--99-9-9---|verse:
D--9--99-9-9--9--99-9-9--8--88-8-8--8--88-8-8---|Let notes
A-----------------------------------------------|ring.
D-----------------------------------------------|

Pre-second verse: Gradule Slides
E----------------------------------------6-------6--|
B----------------------------------------8--88-8-8--|
G----------------------------------------9--99-9-9--|
D----------------------------------------8--88-8-8--|
A---------------------------------------------------|
D--/6--/6--/6-/6-\1---/6--/6--/6-/6-\1--------------|

Second Verse: let all notes ring.
E----------7----------------7-----------------6----------------6------------|
B------9-----9---9------9-----9---9-------8-----8---8------8-----8---8------|
G----8---8-----8------8---8-----8-------9---9-----9------9---9-----9--------|
D--9----------------9-----------------8----------------8--------------------|
A----------------------------------------------------------------------(x2)-|
D---------------------------------------------------------------------------|


First Chourse: Rapid struming
E--------------------------------------------------------------------------|
B--------------------------------------------------------------------------|
G--------------------------------------------------------------------------|
D--9------8----11-----4------2-----1-------8---8-9---6-8---8-9---9-11------|
A--6(x15)-6(x8)-6(x8)-6(x15)-6(x8)-6(x8)-7---7-----7-----7-----7------(x2)-|
D--6------6-----6-----6------6-----6---------------------------------------|

E---------------------------------------------------------------------|
B---------------------------------------------------2-----------------|
G--8------8-----------------------------------------x-----4-----3-----|
D--9------8-------1-1-1--1/2--2\1-1-1-1--1-1--------1-----1-----1-----|
A--6(x15)-6(x15)--6-6-6--6----6---6-6-6--6-6(x2)----1(x8)-1(x4)-1(x4)-|
D--6------6-------2-2-2--2----2---2-2-2--2-2--------1-----1-----1-----|


1st Guitar/Pre-Third verse: Repeat 4 times throughout Third verse.
E-----------------------------------------------------------------|
B-----------------------------------------------------------------|
G-----------------------------------------------------------------|
D--6-----------(x2)Before-3rd-verse-------------------------------|
A----x-6h7--------------------------------------------------------|
D-----------9-----------------------------------------------------|


2nd Guitar/Third verse: Repeat 4 times Throughout Third verse.
E--------------------------------------------------------------|
B--/-12-12-12-12-12-12-12-12-----------------------------------|
G--/-13-13-13-13-13-13-13-13---/-12-12-12-12-12-12-12-12-------|
D------------------------------/-13-13-13-13-13-13-13-13-------|
A--------------------------------------------------------------|
D--------------------------------------------------------------|


2nd Chourse: totally different begining than the 1st chourse.
E----------------------------------------------------------------|
B----------------------------------------------------------------|
G--4------3-3b----6-6---3------6-6b-----(3)-(3)------------------|
D--2------x-x-----x-x---1------x-x-------x---x-------------------|
A--2(x15)-6-6(x4)-6-6---1(x15)-4-4b(x4)-(1)-(1)------------------|
D--2------6-6-----6-6---1----------------------------------------|

E--------------------------------------------------------------------|
B--------------------------------------------------2-----------------|
G--------------------------------------------------x-----4-----3-----|
D----8-----8h9-----6h8-----8h9-----9h11----------1-1-----1-----1-----|
A--7---7-7-----7-7-----7-7-----7-7------7-7(x2)--2-1(x8)-1(x4)-1(x4)-|
D------------------------------------------------2-1-----1-----1-----|


Outro:Guitar one.
E-------------------------------------------------------|
B--/-12-12-12-12-12-12-12-12----------------------------|
G--/-13-13-13-13-13-13-13-13--/12-12-12-12-12-12-12-12--|
D-----------------------------/13-13-13-13-13-13-13-13--|
A-------------------------------------------------------|
D-------------------------------------------------------|


Outro:Guitar two.
E------------------------|
B------------------------|
G------------------------|
D--6----------5----------|
A----6-6h7p6----6-6h7p6--|
D------------------------|

This is the entire Guitar portion of the song. I hope you enjoyed learning it, and 
to enjoy playing it.
            

comments powered by Disqus
↑ Back to top | Fear Before The March Of Flames Tabs for High As A Horse. Lyrics for acoustic guitar and electric guitar. Tablatures and chords are parodies/interpretations of the original songs. You may use it for private study, scholarship, research or language learning purposes only