» » »

Go Wash Your Mouth Tabs (ver.2)

Artists:  A B C D E F G H I J K L M N O P Q R S T U V W X Y Z # 

Go Wash Your Mouth Tabs (ver.2)

Fear Before The March Of Flames
Rating:
0/5 (0 votes)

Tabs too difficult? Try these video lessons and learn fast.
                Ryt Gtr

(this throughout most the song:)

e|--------------------------------------------------------------------------|
B|--------------------------------------------------------------------------|
G|--------------------------------------------------------------------------|
D|----5-----5---5-----------------------------------------------------------|
A|--9----9----9-------------------------------------------------------------|
D|--------------------------------------------------------------------------|


(and than for the bridge:)

e|--------------------------------------------------------------------------|
B|--------------------------------------------------------------------------|
G|--------------------------------------------------------------------------|
D|--9--5--4--2--0-----------------------------------------------------------|
A|-----------------4--------------------------------------------------------|
D|--------------------------------------------------------------------------|

(than at the end:)

e|--------------------------------------------------------------------------|
B|--------------------------------------------------------------------------|
G|--------------------------------------------------------------------------|
D|--4--5--7---5-4-5-4--5--7--5-4-5------------------------------------------|
A|--------------------------------------------------------------------------|
D|--------------------------------------------------------------------------|


Lead Gtr

e|--------------------------------------------------------------------------|
B|--------------------------------------------------------------------------|
G|--------------------------------------------------------------------------|
D|--4-4-5444-4-5444-54-4-4-5444-4-5444-54-----------------------------------|
A|--2-2-2222-2-2222-22-2-2-2222-2-2222-22-----------------------------------|
D|--------------------------------------------------------------------------|

e|--------------------------------------------------------------------------|
B|--------------------------------------------------------------------------|
G|--------------------------------------------------------------------------|
D|--4-4-5444-4-5444-54-4-4-5444-4-5444-54-----------------------------------|
A|--0-0-0000-0-0000-00-0-0-0000-0-0000-00-----------------------------------|
D|--------------------------------------------------------------------------|

(^^^ that part every other time is:)

e|--------------------------------------------------------------------------|
B|--------------------------------------------------------------------------|
G|--------------------------------------------------------------------------|
D|--4-4-5444-4-5444-54-4-4-5444-4-5444-54-----------------------------------|
A|--0-0-0000-0-0000-00-3-3-3333-3-3333-33-----------------------------------|
D|--------------------------------------------------------------------------|

(all that sh*t until it gets to:)

e|--------------------------------------------------------------------------|
B|--------------------------------------------------------------------------|
G|--------------------------------------------------------------------------|
D|--9-5-4-2-0---------------------------------------------------------------|
A|------------4-------------------------------------------------------------|
D|--------------------------------------------------------------------------|

and thats all i got =/

maybe missing a fews of the strums but i give a     . figure the strumming out for 
if im wrong on any of it, fix it.
            
Tabs too difficult? Try these video lessons and learn fast.




comments powered by Disqus
↑ Back to top | Tablatures and chords are parodies/interpretations of the original songs. You may use it for private study, scholarship, research or language learning purposes only