» » »

Given To Dreams Bass tabs (ver.1)

Artists:  A B C D E F G H I J K L M N O P Q R S T U V W X Y Z # 

Given To Dreams Bass tabs (ver.1)

Fear Before The March Of Flames
Rating:
1/5 (1 vote)

Hard to play? Try these video lessons and learn fast.
                Band: Fear Before The March Of Flames
Drop D Tuning: GDAD


G|-----------------------------------------------------------------|
D|-----------------------------------------------------------------|
A|-----------------------------------------------------------------|
D|4-44-40---------4-44-40---------4-44-40---------4-44-40----------|

G|-----------------------------------------------------------------|
D|-----------------------------------------------------------------|
A|-----------------------------------------------------------------|
D|4-44-40---------4-44-40---------444--40---------4-44-40----------|


0:38
G|----------------------11-9----------------------------|
D|---------------------------12---11-----7h9-0----------|
A|------------------------------9----9-7----------------|
D|2-22-20---------0-0-0------------------------2-22-20--|


0:57
G|----------------------------------------------------------------------|
D|----------------------------------------------------------------------|
A|----------------------------------------------------------------------|
D|4p0-0-4p0-0-4p0-0-4p0-0-4p0-0-4p0-0-4---4p0-0-4p0-0-4p0-0-4p0-0-4p0-0-|

G|-------------------|
D|-------------------|
A|-------------------|
D|4p0-0-4p0-0-4p0-0--|x2 (from 0:57)


1:22
G|----------6-------6-------6-----|
D|------4444-444-444-4444444-444--|
A|--------------------------------|
D|2-20----------------------------|x3

G|-----|
D|-----|
A|-----|
D|2-0--|


1:39
G|----------------------------------------------------------------------|
D|----------------------------------------------------------------------|
A|----------------------------------------------------------------------|
D|4p0-0-4p0-0-4p0-0-4p0-0-4p0-0-4p0-0-4---4p0-0-4p0-0-4p0-0-4p0-0-4p0-0-|

G|-------------------|
D|-------------------|
A|-------------------|
D|4p0-0-4p0-0-4p0-0--|x2 (from 1:39)


2:01
G|---------------------------------------------------------------------|
D|-----------------4~--------------------------------4444444444444444--|
A|---------------------------------------------------------------------|
D|0~--------------------------------0~---------------------------------|

G|---------------------------------------------------------------------|
D|---------------------------------------------------------------------|
A|---------------------------------------------------------------------|
D|0000000000000000044444444444444444000000000000000004444444444444444--|

G|----------------------------------------------------------|
D|----------------------------------------------------------|
A|----------------------------------------------------------|
D|0--0-0-00----0--0-0-00----4--4-4-44----4--4-4-44---4h6h7--|x2

G|-----|
D|-----|
A|-----|
D|-0~--|
            
Hard to play? Try these video lessons and learn fast. | Correct




comments powered by Disqus
↑ Back to top | Tablatures and chords are parodies/interpretations of the original songs. You may use it for private study, scholarship, research or language learning purposes only