» » »

Fear Before The March Of Flames, Get Your Life Together Tabs (ver.1)

Artists:  A B C D E F G H I J K L M N O P Q R S T U V W X Y Z # 

Get Your Life Together Tabs (ver.1)

Fear Before The March Of Flames Tabs
 Rating:
4.2/5 (5 votes)
Get Your Life Together lessons Tabs too difficult? Try these video lessons and learn fast
1
                FEAR BEFORE - GET YOUR LIFE TOGETHER
note: kind of difficult to figure out the tuning but this sounds close as anything.

1.
D|----------------------------------|
A|----------------------------------|
F|----------------------------------|
C|-3-3-----3-3-----3-3-----3-3--7-7-|
G|-5-5-----5-5-----5-5-----5-5--8-8-|
C|-0-0-----0-0-----0-0-----0-0--8-8-| (2x)

2.
D|------------------------|
A|------------------------|
F|------------------------|
C|-3----3-----3----3------|
G|-054-505-4-5054-505-4-5-|
C|-000-000-0--000-000-0---|(2x)

3. ???
D|-----------------------------10-------10---------------------|
A|---3-(8x)--8-(8x)--3-(8x)--10--(4x)-10--(2x)-----------------|
F|--2-------7-------2------10--------9--------1212121212121212-|
C|-0-------0-------0---------------------------x-x-x-x-x-x-x-x-|
G|--------------------------------------------1010101010101010-|
C|-------------------------------------------------------------|

3.
D|---------------------------------------------|
A|-----------------------3---1--------88888888-|
F|-3--3-2--2-3--3322---35--2---023----xxxxxxxx-|
C|---5-5--5-5-35----0-------------3/5-55555555-|
G|---------------------------------------------|
C|---------------------------------------------|

4.
D|---------------------------------|
A|---------------------------------|
F|---------------------------------|
C|-8-------0-------1-------0-------|
G|-8-(16x)-0-(16x)-1-(16x)-0-(16x)-|
C|-8-------0-------1-------0-------|(2x)

5.
D|-----------------------------------|------------------|
A|-----------------------------------|------------------|
F|-----------------------------------|------------------|
C|-3-3-----333-----3-3-3----3-3--7-7-|-7-------11-------|
G|-5-5-----555-----5-5-5----5-5--8-8-|-7-(16x)-11-(16x)-|
C|-0-0-----000-----0-0-0----0-0--8-8-|-7-------11-------|

6.
D|------------------------|
A|------------------------|
F|------------------------|
C|-3----3-----3----3------|
G|-054-505-4-5054-505-4-5-|
C|-000-000-0--000-000-0---|(2x) 

7.
D|-11*12*9*b18*17*10*-|
A|--------------------|
F|-(just mess around)-|
C|--------------------|
G|--------------------|
C|--------------------|

8.
D|---------------------------------|
A|---------------------------------|
F|---------------------------------|
C|-8-------0-------1-------0-------|
G|-8-(16x)-0-(16x)-1-(16x)-0-(16x)-|
C|-8-------0-------1-------0-------|(2x)

9.
D|---------------------------|
A|---------------------------|
F|---------------------------|
C|-3-----3-3-3----3-3----333-|
G|-5-----5-5-5----5-5----555-|
C|-0-----0-0-0----0-0----000-|

10.
D|-----------------------------|
A|-----------------------------|
F|-----------------------------|
C|---------333-333-3333--------|
G|---------555-555-5555-4-(2x)-|
C|-0-(32x)-000-000-0000-5------|
            
Submit corrections

comments powered by Disqus
↑ Back to top | Fear Before The March Of Flames Tabs for Get Your Life Together. Lyrics for acoustic guitar and electric guitar. 1 Tablatures and chords are parodies/interpretations of the original songs. You may use it for private study, scholarship, research or language learning purposes only