» » »

Fear Before The March Of Flames, Everything's Not Shitty Tabs (ver.1)

Artists:  A B C D E F G H I J K L M N O P Q R S T U V W X Y Z # 

Everything's Not Shitty Tabs (ver.1)

Fear Before The March Of Flames Tabs
Rating:
0/5 (0 votes)
Everything's Not Shitty lessons Tabs too difficult? Try these video lessons and learn fast
                FEAR BEFORE - EVERYTHINGS NOT sh*tTY

D|---5---5---5---5---4---4---4---4---------------------------------|
A|-7--77--77--77--77--77--77--77--73--33--33--33--32--22--2--2---2-|
F|--6---6---6---6---5---5---5---5----6---6---6---6---6---6-5--55---|
C|----------------------------------7---7---7---7---7---7---6---6--|
G|-----------------------------------------------------------------|
C|-----------------------------------------------------------------|

D|-----------------------------------------|
A|-----------------------------------------|
F|-----------------------------------------|
C|-0-0-00-0-00-0-00-7-4-4-44-4-44-4-44-4-4-|
G|-0-0-00-0-00-0-00-7-4-4-44-4-44-4-44-4-4-|
C|-0-0-00-0-00-0-00-7-4-4-44-4-44-4-44-4-4-|

D|-----------------------------------------------------------------------------------------|
A|-----------------------------------------------------------------------------------------|
F|-----------------------------------------------------------------------------------------|
C|-0-0-00-0-00-0-07-7-7-4-4-44-4-4-2-2-22-2-2-6-66-6-66-6-66-6-66-4-4-44-4-4-7-7-7-2-2-2-0-|
G|-0-0-00-0-00-0-07-7-7-4-4-44-4-4-2-2-22-2-2-4-44-4-44-4-44-4-44-4-4-44-4-4-7-7-7-2-2-2-0-|
C|-0-0-00-0-00-0-07-7-7-4-4-44-4-4-2-2-22-2-2---------------------4-4-44-4-4-7-7-7-2-2-2-0-|

D|---5---5---5---5---4---4---4---4---------------------------------|
A|-7--77--77--77--77--77--77--77--73--33--33--33--32--22--2--2---2-|
F|--6---6---6---6---5---5---5---5----6---6---6---6---6---6-5--55---|
C|----------------------------------7---7---7---7---7---7---6---6--|
G|-----------------------------------------------------------------|
C|-----------------------------------------------------------------|

D|-14*16*-------|-5~-4~----------|
A|-------14*10*-|-7~-7~-3~-2~-2~-|
F|--------------|-6~-5~-6~-6~-5~-|
C|--------------|-------7~-7~-6~-|
G|--------------|----------------|
C|--------------|----------------|

D|-----------------------------------------|
A|-----------------------------------------|
F|-----------------------------------------|
C|-0-0-00-0-00-0-00-7-4-4-44-4-44-4-44-4-4-|
G|-0-0-00-0-00-0-00-7-4-4-44-4-44-4-44-4-4-|
C|-0-0-00-0-00-0-00-7-4-4-44-4-44-4-44-4-4-|

D|-----------------------------------------------------------------------------------------|
A|-----------------------------------------------------------------------------------------|
F|-----------------------------------------------------------------------------------------|
C|-0-0-00-0-00-0-07-7-7-4-4-44-4-4-2-2-22-2-2-6-66-6-66-6-66-6-66-4-4-44-4-4-7-7-7-2-2-2-0-|
G|-0-0-00-0-00-0-07-7-7-4-4-44-4-4-2-2-22-2-2-4-44-4-44-4-44-4-44-4-4-44-4-4-7-7-7-2-2-2-0-|
C|-0-0-00-0-00-0-07-7-7-4-4-44-4-4-2-2-22-2-2---------------------4-4-44-4-4-7-7-7-2-2-2-0-|

D|-------------------------------------------------------|
A|---------------------------------------------------0-0-|
F|--1---1---1---1---1---1---1---1----8-----9---------9/4-|
C|----2---2---2---2---2---2---2---2----------------------|
G|-4-4-4-4-4-4-4-4-3-3-3-3-3-3-3-3-12-12/11-11/7-----9/4-|
C|-------------------------------------------------------|

D|-------------------------------------------------------|
A|--------------0------------------------------------0-0-|
F|----1---1---1---2-1---1-2-1-2-1-2--8-----9---------9/4-|
C|------2---2---------2----------------------------------|
G|-2-4-4-4-4-4-4-4-3-3-3-3-3-3-3-3-12-12/11-11/7----49/4-|
C|-------------------------------------------------------|

D|-------------------------------------------------------------------------------------|
A|-------------------------------------------------------------------------------------|
F|-------------------------------------------------------------------------------------|
C|---------------------------------------------------77777777-7777777-66666666-6666622-|
G|-44444444-444-111177-(2x)-33333333-333-111177-(2x)-77777777-7777777-66666666-6666622-|
C|---------------------------------------------------77777777-7777777-66666666-6666622-|

D|-------------------------------------------------------------------------------|
A|-------------------------------------------------------------------------------|
F|-------------------------------------------------------------------------------|
C|-00000000-0000000-00000000-0007777-44444444-4444444-44444444-(4444444|2222222)-|
G|-00000000-0000000-00000000-0007777-44444444-4444444-44444444-(4444444|2222222)-|
C|-00000000-0000000-00000000-0007777-44444444-4444444-44444444-(4444444|2222222)-|

D|-14*-17*-16*-9*-10*-9*-|---|
A|-----------------------|---|
F|-11*-14*-13*-6*--7*-6*-|-6-|
C|-----------------------|---|
G|-----------------------|-4-|
C|-----------------------|---|
            
Submit corrections

comments powered by Disqus
↑ Back to top | Fear Before The March Of Flames Tabs for Everything's Not Shitty. Lyrics for acoustic guitar and electric guitar. Tablatures and chords are parodies/interpretations of the original songs. You may use it for private study, scholarship, research or language learning purposes only