» » »

Drowning The Old Hag Tabs (ver.2)

Artists:  A B C D E F G H I J K L M N O P Q R S T U V W X Y Z # 

Drowning The Old Hag Tabs (ver.2)

Fear Before The March Of Flames
Rating:
3/5 (2 votes)

Hard to play? Try these video lessons and learn fast.
                (Intro)
FBTMOF
The Always Open Mouth
Drowning The Old Hag


D|------------------------------------------------------------|x3
A|------------------------------------------------------------|listen for the 
F|-----------------------------------------7------------------|rhythm, its not
C|------------------------------------------------------------|that hard.
G|---00-----6--00--------00-----6--00------5------------------|
C|---00----6---00----6---00----6---00-------------------------|


D|--------------------------------------------|
A|--------------------------------------------|
F|--------------------------------------------|
C|--------------------------------------------| 
G|---00----6--00--------00-----6--0-0-0-0-----|
C|---00---6---00----6---00----6---0-0-0-0-----|
            
Hard to play? Try these video lessons and learn fast. | Correct




comments powered by Disqus
↑ Back to top | Tablatures and chords are parodies/interpretations of the original songs. You may use it for private study, scholarship, research or language learning purposes only