» » »

Fear Before The March Of Flames, Drowning The Old Hag Tabs (ver.1)

Artists:  A B C D E F G H I J K L M N O P Q R S T U V W X Y Z # 

Drowning The Old Hag Tabs (ver.1)

Fear Before The March Of Flames Tabs
Rating:
5/5 (2 votes)
Drowning The Old Hag lessons Tabs too difficult? Try these video lessons and learn fast
                this is what i got so far

drop C

|--------------------------------------|
|--------------------------------------|
|-------------------------777777777----|
|-------------------------xxxxxxxxx----| x3
|------7------------7-----555555555----|
|-0-0-8--0-0-6-0-0-8--0-0-000000000----|

then on the 4th
|--------------------------------------|
|--------------------------------------|
|--------------------------------------|
|---------------------0-0-0-x----------|
|------7------------7-0-0-0-x----------|
|-0-0-8--0-0-6-0-0-8--0-0-0-x----------|

i cant get her off of my chest
|--------------------|
|--------------------|
|--------------------|
|--------------------| x4
|-0-00-0-00-0-00-6/4-|
|-0-00-0-00-0-00--0--|


|-------------|
|---10~---10~-|
|-------------|
|----8-----8--|
|-8~----8~----|
|-8~----8~----|

i'll put a hole there
|-------------    |-----------------------|
|-14b15-15-14-    |-16b17-17-16-17b18-18--|
|------------- x6 |-----------------------|
|-------------    |-----------------------|
|-------------    |-----------------------|
|-------------    |-----------------------|

|-------------|
|---10~---10~-|
|-------------|
|----8-----8--|
|-8~----8~----|
|-8~----8~----|

|-------------    |-----------------------|
|-14b15-15-14-    |-16b17-17-16-17b18-18--|
|------------- x6 |-----------------------|
|-------------    |-----------------------|
|-------------    |-----------------------|
|-------------    |-----------------------|

dont tell me
|------13~----------12~-|
|-10/14--------10/14----|
|-----------------------|
|-----------------------|
|-----------------------|
|-----------------------|
            
Submit corrections

comments powered by Disqus
↑ Back to top | Fear Before The March Of Flames Tabs for Drowning The Old Hag. Lyrics for acoustic guitar and electric guitar. Tablatures and chords are parodies/interpretations of the original songs. You may use it for private study, scholarship, research or language learning purposes only