» » »

237 Tabs (ver.1)

Artists:  A B C D E F G H I J K L M N O P Q R S T U V W X Y Z # 

Rating:
0/5 (0 votes)

Hard to play? Try these video lessons and learn fast.
                FEAR BEFORE THE MARCH OF FLAMES - 237
note: its not 100% but itll give you somethin to work off of.

D|------------|-----------|---------------|
A|------------|-----------|---------------|
F|------------|-----------|---------------|
C|-333-33-333-|--3--3--3--|---------------|
G|-555-55-555-|--5--5--5--|-5/12/8/5/10/7-|
C|-000-00-005-|-55-55-55--|---------------|

D|-------------------|-------------|
A|-------------------|-666-666-666-|
F|-------------------|-------------|
C|----3b-3b-3b----3b-|-333-333-333-|
G|-------------------|-------------|
C|-3b----------3b----|-------------|

D|-------------------------------------------|
A|----4----4----4----4--3----3----3----3-----|
F|--5--5-5--5-5--5-5--51-1421-1321-1421-1321-|
C|-4-4--4-4--4-4--4-4------------------------|
G|-------------------------------------------|
C|-------------------------------------------|

D|------------|----|
A|------------|----|
F|------------|----|
C|-333-33-333-|--3-|
G|-555-55-555-|--5-|
C|-000-00-005-|-55-|

D|----------------------|----------------------7888888-|
A|--7---------7---------|-77-7-7-77-7-7-77-7-7-7777777-|
F|---5-5h6p5---5-5h6p5--|------------------------------|
C|-6--6-----66--6-----6-|-66-6-6-66-6-6-66-6-6-6666666-|
G|----------------------|------------------------------|
C|----------------------|------------------------------|

D|-14-14-14-15-15-13-13-13-|
A|-13-13-13-13-13-13-13-13-|
F|-------------------------|
C|-------------------------|
G|-------------------------|
C|-------------------------|

D|-14141414141415151515131313131313-|
A|-13131313131313131313131313131313-|
F|----------------------------------|
C|----------------------------------|
G|----------------------------------|
C|----------------------------------|

D|----------------|
A|----------------|
F|----------------|
C|-2~---3p2h3/6b~-|
G|----------------|
C|----------------|

D|---------|-141414151515-|-19b-|
A|-8989898-|-131313131313-|-----|
F|---------|--------------|-----|
C|---------|--------------|-----|
G|---------|--------------|-----|
C|---------|--------------|-----|

D|---------------|
A|---------------|
F|--7------------|
C|----8-7--------|
G|---------------|
C|-5-5-5-5444444-|
            
Hard to play? Try these video lessons and learn fast. | Correct




comments powered by Disqus
↑ Back to top | Tablatures and chords are parodies/interpretations of the original songs. You may use it for private study, scholarship, research or language learning purposes only